Song name
# A B C D E F G H I J K L M N O P Q R S T U V W X Y Z

Misc Unsigned Bands - Friends Of Lizzy - If Its Wrong tab

If It's Wrong by: Friends of Lizzy
This is there website: http://www.myspace.com/friendsoflizzy


Intro

E]---6-6-6-6---6-6-------]
B]--7-7-7-7---6-6----6-6-]
G]------------------5-5--] 7x
D]-----------------------]
A]-----------------------]
E]-----------------------]

Verse/Chorus

E]-----------------------------------------------------]
B]-----------------------------------------------------]
G]-----------------------------------------------------]  
D]--8-8-8-8-8-8-8/-11-11-11-11\--6-6-6-6\--4-4-4-4-4-4-]
A]--8-8-8-8-8-8-8/-11-11-11-11\--6-6-6-6\--4-4-4-4-4-4-]
E]--6-6-6-6-6-6-6/--9--9--9--9\--4-4-4-4\--2-2-2-2-2-2-]

E]----------------]
B]----------------]
G]--8-8-8-8-8-8-8-]2x
D]--8-8-8-8-8-8-8-]
A]--6-6-6-6-6-6-6-]
E]----------------]

Part3
    pm             pm             pm
E]--------------------------------------------------------]
B]--------------------------------------------------------]
G]--6-6-6-6-6-6-6--9-9-9-9-9-9-9--4-4-4-4-4-4-4-4-4-4-4-4-]4x
D]--6-6-6-6-6-6-6--9-9-9-9-9-9-9--4-4-4-4-4-4-4-4-4-4-4-4-]
A]--4-4-4-4-4-4-4--7-7-7-7-7-7-7--2-2-2-2-2-2-2-2-2-2-2-2-]
E]--------------------------------------------------------]

Part4
    pm             pm             pm
E]--------------------------------------------------------]
B]--------------------------------------------------------]
G]--------------------------------------------------------]2x
D]--4-4-4-4-4-4-4--3-3-3-3-3-3-3--6-6-6-6-6-6-6-6-6-6-6-6-]
A]--4-4-4-4-4-4-4--3-3-3-3-3-3-3--6-6-6-6-6-6-6-6-6-6-6-6-]
E]--2-2-2-2-2-2-2--1-1-1-1-1-1-1--4-4-4-4-4-4-4-4-4-4-4-4-]

Part5

E]-------------------------------------]
B]-------------------------------------]
G]-------------------------------------]2x
D]--8-x-x-x-x-x-x-x-6--4-x-x-x-x-x-x-x-]
A]--8-x-x-x-x-x-x-x-6--4-x-x-x-x-x-x-x-]
E]--6-x-x-x-x-x-x-x-4--2-x-x-x-x-x-x-x-]


Verse/Chorus
E]-----------------------------------------------------]
B]-----------------------------------------------------]
G]-----------------------------------------------------]  
D]--8-8-8-8-8-8-8/-11-11-11-11\--6-6-6-6\--4-4-4-4-4-4-]
A]--8-8-8-8-8-8-8/-11-11-11-11\--6-6-6-6\--4-4-4-4-4-4-]
E]--6-6-6-6-6-6-6/--9--9--9--9\--4-4-4-4\--2-2-2-2-2-2-]

E]----------------]
B]----------------]
G]--8-8-8-8-8-8-8-]2x
D]--8-8-8-8-8-8-8-]
A]--6-6-6-6-6-6-6-]
E]----------------]


E]--------------------------------------------------------------]
B]--------------------------------------------------------------]
G]--11-10-8-10--11-10-8-10--6-8--11-10-8-10--11-10-8-10--6-8-8~-]
D]--------------------------------------------------------------]
A]--------------------------------------------------------------]
E]--------------------------------------------------------------]

Part3
    pm             pm             pm
E]--------------------------------------------------------]
B]--------------------------------------------------------]
G]--6-6-6-6-6-6-6--9-9-9-9-9-9-9--4-4-4-4-4-4-4-4-4-4-4-4-]4x
D]--6-6-6-6-6-6-6--9-9-9-9-9-9-9--4-4-4-4-4-4-4-4-4-4-4-4-]
A]--4-4-4-4-4-4-4--7-7-7-7-7-7-7--2-2-2-2-2-2-2-2-2-2-2-2-]
E]--------------------------------------------------------]

Part4
    pm             pm             pm
E]--------------------------------------------------------]
B]--------------------------------------------------------]
G]--------------------------------------------------------]2x
D]--4-4-4-4-4-4-4--3-3-3-3-3-3-3--6-6-6-6-6-6-6-6-6-6-6-6-]
A]--4-4-4-4-4-4-4--3-3-3-3-3-3-3--6-6-6-6-6-6-6-6-6-6-6-6-]
E]--2-2-2-2-2-2-2--1-1-1-1-1-1-1--4-4-4-4-4-4-4-4-4-4-4-4-]

Part5

E]-------------------------------------]
B]-------------------------------------]
G]-------------------------------------]2x
D]--8-x-x-x-x-x-x-x-6--4-x-x-x-x-x-x-x-]
A]--8-x-x-x-x-x-x-x-6--4-x-x-x-x-x-x-x-]
E]--6-x-x-x-x-x-x-x-4--2-x-x-x-x-x-x-x-]

E]---------------------------------------------------------------]
B]---------------------------------------------------------------]
G]--8-8-8-8-8-8-8--8-8-8-8-8-8-8---6-6-6-6-6-6-6--6-6-6-6-6-6-6--]4x
D]--8-8-8-8-8-8-8--8-8-8-8-8-8-8---6-6-6-6-6-6-6--6-6-6-6-6-6-6--]
A]--6-6-6-6-6-6-6--6-6-6-6-6-6-6---4-4-4-4-4-4-4--4-4-4-4-4-4-4--]
E]---------------------------------------------------------------]

Outro

E]------------------------------------------]
B]--11-11--14-14--18-18--16-16--11-14-18-16-]
G]------------------------------------------]
D]------------------------------------------]
A]------------------------------------------]
E]------------------------------------------]

Part3
    pm             pm             pm
E]--------------------------------------------------------]
B]--------------------------------------------------------]
G]--6-6-6-6-6-6-6--9-9-9-9-9-9-9--4-4-4-4-4-4-4-4-4-4-4-4-]4x
D]--6-6-6-6-6-6-6--9-9-9-9-9-9-9--4-4-4-4-4-4-4-4-4-4-4-4-]
A]--4-4-4-4-4-4-4--7-7-7-7-7-7-7--2-2-2-2-2-2-2-2-2-2-2-2-]
E]--------------------------------------------------------]

  Let Ring
E]--------]
B]--------]
G]--------]
D]--6-----]
A]--6-----]
E]--4-----]


Key:
\ = Slide
pm= Palm Mute
x = Muted Strings
~ = Vibrato

Enjoy :)
Tap to rate this tab
# A B C D E F G H I J K L M N O P Q R S T U V W X Y Z