Song name
# A B C D E F G H I J K L M N O P Q R S T U V W X Y Z

Misc Unsigned Bands - Taken By Cars - Uh Oh tab

Uh Oh
TAKEN BY CARS


Intro:
Gtr.1:
E|---------------------------------------------------------|
B|-10-10-10-10-10-10-9-9-9-9-10-10-10-10-10-10-8-8-8-8-8-8-|
G|-10-10-10-10-10-10-9-9-9-9-10-10-10-10-10-10-8-8-8-8-8-8-|  2x
D|---------------------------------------------------------|
A|---------------------------------------------------------|
E|---------------------------------------------------------|

Gtr.2
E|-------------------|
B|----13-11-11-13-11-|
G|-10----------------|  6x
D|-------------------|
A|-------------------|
E|-------------------|

Verse:
E|------------------------|
B|-----9-----9------9-----|
G|---10-10-10-10--10-10---|
D|-10----10-----10-----10-|
A|------------------------|
E|------------------------|

Chorus:
Gtr.1:
E|---------------------------------------------------------|
B|-10-10-10-10-10-10-9-9-9-9-10-10-10-10-10-10-8-8-8-8-8-8-|
G|-10-10-10-10-10-10-9-9-9-9-10-10-10-10-10-10-8-8-8-8-8-8-|  2x
D|---------------------------------------------------------|
A|---------------------------------------------------------|
E|---------------------------------------------------------|

Gtr.2
E|-------------------|
B|----13-11-11-13-11-|
G|-10----------------|  6x
D|-------------------|
A|-------------------|
E|-------------------|
Tap to rate this tab
# A B C D E F G H I J K L M N O P Q R S T U V W X Y Z