Song name
# A B C D E F G H I J K L M N O P Q R S T U V W X Y Z

Misc Unsigned Bands - Hollow Sanctuary - Trisun tab

::INTRO::(Full Acoustic w/ Delay)
Eb------------------------------------------------|
Bb------------------------------------------------|X4 Acoustic then
Gb---------------------4-3-0---------------------0|X2 Electric w/ Delay
Db-----4-3-0-----4-3-0------------4-3-0-----4-3-0-|
Ab-2-2--------2-2-------------2-2--------2-2------|
Eb-0----------0---------------0----------0--------|

::VERSE ONE::(Heavy Distortion w/Delay)
Eb-------------------------------------------|
Bb-------------------------------------------|
Gb------------7777-7777-------------5555-5555|
Db-5555-5555--7777-7777--4444-4444--5555-5555|
Ab-5555-5555--5555-5555--4444-4444--3333-3333|
Eb-3333-3333--5555-5555--2222-2222--3333-3333|
 PM------------------------------------------|

::TINY SOLO::(Heavy Distortion w/Delay)
Eb-------------------------------------------|
Bb---------------------3p2p0-----------------|
Gb--------------------------3p2p0------------|
Db--7h9p7-5h7p5-4p3b-------------3p2p0------2|
Ab------------------3h5---------------3p2p0-2|
Eb------------------------------------------0|


::CHORUS:: (Heavy Distortion w/Delay)
Eb-----------------------------------|
Bb-----------------------------------|
Gb-----------------------------------|
Db-5-5-5--4-4-4-4-4------------------|
Ab-2-2-2--2-2-2-2-2-4-4-4--5-5-5--5-5|
Eb------------------2-2-2--2-2-2--3-3|
Tap to rate this tab
# A B C D E F G H I J K L M N O P Q R S T U V W X Y Z