Song name
# A B C D E F G H I J K L M N O P Q R S T U V W X Y Z

Misc Unsigned Bands - Thinking Fellers Union Local 282 - Communication tab

Thinking Fellers Union Local 282
Communication
From Strangers From The Universe(1994) 


Some feller filler for everyone... just mess around over this pattern.

                                                               2x

E|-----4---7---4-------7/9-----7---4--------------------------------|
B|-----5---8---5-------8/10----8---5--------------------------------|
G|------------------------------------------------------------------|
D|------------------------------------------------------------------|
A|------------------------------------------------------------------|
E|------------------------------------------------------------------|


E|-----2---5b-------------------------------------------------------|
B|-----3---6b-------------------------------------------------------|
G|------------------------------------------------------------------|
D|------------------------------------------------------------------|
A|------------------------------------------------------------------|
E|------------------------------------------------------------------|


Luiz
(lucifernando@gmail.com)
Tap to rate this tab
 
# A B C D E F G H I J K L M N O P Q R S T U V W X Y Z