Song name
# A B C D E F G H I J K L M N O P Q R S T U V W X Y Z

Misc Unsigned Bands - Breaking The Barrier - Rock And Roll With Me tab

Rock and Roll With Me
Breaking the Barrier
Standing Room Only
ss-Sustain Note
wb-whole bend
hb-half bend

Intro/chorus
       A            A              A            A
e--------------------------------------------------|
b--------------------------------------------------|
g--------------------------------------------------|
d-----2ss----------2ss------------2ss----------2ss-|
a-----0ss----------0ss------------0ss----------0ss-|
e--------------------------------------------------|
             A                     D
e-------------------------------------------------|
b--------------------------3--3--3--3--3--3--3----|
g--------------------------2--2--2--4--2--4--2----|
d-----2--2--2--4--2--4--2--0--0--0--0--0--0--0----|
a-----0--0--0--0--0--0--0-------------------------|
e-------------------------------------------------|
              A                      E
e-------------------------------------------------|
b-------------------------------------------------|
g-------------------------------------------------|
d-----2--2--2--4--2--4--2-------------------------|
a-----0--0--0--0--0--0--0--2--2--4--2--2--2--4--2-|
e--------------------------0--0--0--0--0--0--0--0-|
               A
e-------------------------------------------------|
b-------------------------------------------------|
g-------------------------------------------------|
d-----2--2--2--4--2--4--2ss-----------------------|
a-----0--0--0--0--0--0--0ss-----------------------|
e-------------------------------------------------|

Verses
       A            A              A            A
e--------------------------------------------------|
b--------------------------------------------------|
g--------------------------------------------------|
d-----2ss----------2ss------------2ss----------2ss-|
a-----0ss----------0ss------------0ss----------0ss-|
e--------------------------------------------------|
           D
e-------------------------------------------------|
b--3--3--3--3--3--3--3----------------------------|
g--2--2--2--4--2--4--2----------------------------|
d--0--0--0--0--0--0--0----------------------------|
a-------------------------------------------------|
e-------------------------------------------------|
              A                      E
e-------------------------------------------------|
b-------------------------------------------------|
g-------------------------------------------------|
d-----2--2--2--4--2--4--2-------------------------|
a-----0--0--0--0--0--0--0--2--2--4--2--2--2--4--2-|
e--------------------------0--0--0--0--0--0--0--0-|

Solo 1
e-------------------------------------------------|
b----8888-8888-8888-8888-8888-8888---77--55-------|
g----9999-9999-9999-9999-9999-9999---77--55-------|
d--------------------------------------------7577-|
a-------------------------------------------------|
e-------------------------------------------------|

e----10--8--7--5---55--55--55--55--55-------------|
b--11--9--7--5---7fb-7fb-7fb-7fb-7fb---8585--8585-|
g-------------------------------------------------|
d-------------------------------------------------|
a-------------------------------------------------|
e-------------------------------------------------|

e--5----------------------------------------------|
b----8-5------------------------------------------|
g-------8-7-5------5fb----------------------------|
d------------7-5--5----7--------------------------|
a---------------7---------------------------------|
e-------------------------------------------------|

Solo 2
e-------------------------------------------------|
b-------------------------------------------------|
g-----2-4-2-4fb---2-4-2-2-----2-4-2-4fb---2-4-2-2-|
d--2-4---------2-4---------2-4---------2-4--------|
a-------------------------------------------------|
e-------------------------------------------------|

e-------------------------------------5-----------|
b------------------------------------5-8-5--------|
g--5-7fb-5-7-5---5-7fb-5-7-5---7fb-----8-2-5------|
d-7------------7----------------------------7-5-7-|
a--------------------------------------------7----|
e-------------------------------------------------|

e----00------------00------------55---55---55-----|
b----00--2-33-2----00--2-33-2--8fb--8fb--8fb--8fb-|
g--0-11--2-44-2--0-11--2-44-2---------------------|
d-------------------------------------------------|
a-------------------------------------------------|
e-------------------------------------------------|
Tap to rate this tab
# A B C D E F G H I J K L M N O P Q R S T U V W X Y Z