Song name
# A B C D E F G H I J K L M N O P Q R S T U V W X Y Z

Misc Unsigned Bands - Lone Star Drive By - Harsh Reiality tab

whole song tuned in droped b tunning
------------------|
--ring------------|
--out-------------|
-0~~~~0-----------|x2
-0~~~~0-----------|
-0~~~~0-----------|


--------------------------|
--------------------------|
--------------------------|
-000-0--00--0--0---0000---|x8
-000-0--00--0--0---0000---|
-000-0--00--0--0---0000---|

---------------------------|
---------------------------|
---------------------------|
-5~~77777--6666---4444-----|
-3~~55555--6666---4444-----|
-----------6666---4444-----|


-------------------------------------------------------|
-------------------------------------------------------|
-------------------------------------------------------|
-654654--00000000---456456---00000000---654654---------|
-654654--00000000---456456---00000000---654654---------|
-654654--00000000---456456---00000000---654654---------|
Tap to rate this tab
# A B C D E F G H I J K L M N O P Q R S T U V W X Y Z