Song name
# A B C D E F G H I J K L M N O P Q R S T U V W X Y Z

Misc Unsigned Bands - Dude - Hi tab

-------------------------------------------------------------------------------
			    HI - DUDE
-----------------------------------------------------------------------------
Tabbed by: The King Of Awesomeness
Email:GGHH

Tuning: Normal

e|----11-11-11-12-12-12----14-14-14-13-13-13-13-14-----6-6-6-7-7-7-7-6-------------|
B|----11-11-11-12-12-12----14-14-14-13-13-13-13-14-----6-6-6-7-7-7-7-6-------------|
G|--------------~~~~~~~-------------~~----------~~-----------~~------~~------------|
D|---------------------------------------------------------------------------------|
A|---------------------------------------------------------------------------------|
E|---------------------------------------------------------------------------|x 3--|

sweep:
e|--------------------------------------------/14-16-h17b--------r-----------------------|
B|----------------------------------/14-16-h17--------+----------------------------------|
G|--------------------------/14-16-h17---------------------------------------------------|
D|--------------------/14-16-h17---------------------------------------------------------|
A|---------------/14-16-h17--------------------------------------------------------------|
E|########--/14-16-h17-------------------------------------------------------------------|
x 3

| #  pick slide
| /  slide up
| \  slide down
| h  hammer-on
| p  pull-off
| ~  vibrato
| +  harmonic
| x  Mute note
===============================================================================
Have Funn
Tap to rate this tab
 
# A B C D E F G H I J K L M N O P Q R S T U V W X Y Z