Song name
# A B C D E F G H I J K L M N O P Q R S T U V W X Y Z

Misc Unsigned Bands - Owl City - The Saltwater Room tab

ok, im not sure exactly, but i tried this by ear and it sounded pretty close, so if you 
it needs some changes, feel free to let me know!

(capo 5th)
e|---------------------------------------|
B|--------3-------0-----------3-------0--|
G|------0---0---0-----------0---0---0----|
D|----2-------2-----------2-------2------|
A|--3-------------------3----------------|
E|---------------------------------------|

e|---------------------------------------|
B|----------------0----------------------|
G|--------2--------------------2-------0-|
D|------0---0---0------------0---0---0---|
A|----2-------2------------2-------2-----|
E|--3--------------------3---------------|

the chords for this song are: em, C, G...
so just play around with that and put them
where ever you feel is right.
Tap to rate this tab
 
# A B C D E F G H I J K L M N O P Q R S T U V W X Y Z