Song name
# A B C D E F G H I J K L M N O P Q R S T U V W X Y Z

Misc Unsigned Bands - Stee - Good Man tab

song:    Good Man
aritist: Stee & Malcome Horne

http://youtube.com/watch?v=8Yo-5jx2-lg

tabbed by BboyGrimm

May 8, 2008

any questions contact me at xpinoyxdustx@hotmail.com

h-hammer on
p-pull off
x-mute
~-let ring

__________

intro+chorus+1st & 2nd verse
e|--------------------9h12p9---------------------|
B|---------------10------------------7--------9--|
G|-----------9----------------------7--------9---|  play this once
D|------11-------------------------7--------9----|
A|--9--------------------------------------------|
E|-------------------------------7--------9------|


e|--------------------9h12p9---------------------|
B|---------------------------10------7--------9--|
G|-----------9----------------------7--------9---|  play this three times
D|------11--------11---------------7--------9----|
A|--9--------------------------------------------|
E|-------------------------------7--------9------|

__________


bridge
e|--------------------------------------|
B|--------2~-------4~--------6~---------|
G|-------2~-------4~--------6~----------|
D|------2~-------4~--------6~-----------|
A|--------------------------------------|
E|----2~-------4~--------6~-------------|


e|--------------------------------------|
B|--------2~-------4~--------6~----6----|
G|-------2~-------4~--------6~-----6----|
D|------2~-------4~--------6~------6----|
A|--------------------------------------|
E|----2~-------4~--------6~--------6----|

__________


hook
e|-----10---9------------------|
B|------9---10------------10---|
G|-----11---9-------------9----|
D|------------------------11---|
A|--9-------9------------------|
E|----------------------9------|
"girl I can treat you, better than he ever could..."

__________

order:
intro: repeat 1x
1st verse: repeat 1x
bridge
chorus: reapeat 2x
hook to 2nd verse 1x
bridge
chorus reapeat 2x

__________


i like this song, so i decided to tab it out. i did my best to tab it, if you think i 
anything wrong please contact me.

also may i add, play around with the strings, this is just the foundation of what i 
it should sound like.

credit to stee and malcolm horne

-Bboy Grimm
Tap to rate this tab
 
# A B C D E F G H I J K L M N O P Q R S T U V W X Y Z