Song name
# A B C D E F G H I J K L M N O P Q R S T U V W X Y Z

Misc Unsigned Bands - Chocolate Thunder - Female Bathroom tab

Artist - Chocolate Thunder
Song - Female Bathroom

Intro :
 
Guitar 1 [Lead (Overdriven)]
e|---------------------------------------------------------------------|
B|---------------------------------------------------------------------|
G|---------------------------------------------------------------------|(x2)
D|------7-----7---7----------------------------------------------------|
A|--5-5---5-5---5-------7-----7---7------9-----9---9------5-----5---5--|
E|------------------5-5---5-5---5----7-7---7-7---7----3-3---3-3---3----|

Guitar 2 [Rhythm (Clean)]
    D               A                B                G
e|--2~--------------0----------------7----------------3---------------|
B|--3~--------------2----------------7----------------3---------------|
G|--2~--------------2----------------8----------------0---------------|
D|--0~--------------2----------------9----------------0---------------|
A|--x~--------------0----------------9----------------2---------------|
E|--x~--------------0----------------7----------------3---------------|

Verse:

Guitar 1 [Lead (Overdriven)]

e|---------------------------------------------------------------------|
B|---------------------------------------------------------------------|
G|---------------------------------------------------------------------|(x3)
D|------7-----7---7----------------------------------------------------|
A|--5-5---5-5---5-------7-----7---7------9-----9---9------5-----5---5--|
E|------------------5-5---5-5---5----7-7---7-7---7----3-3---3-3---3----|

Guitar 2 [Rhythm (Overdriven)]

e|------------------------------------------|
B|------------------------------------------|
G|------------------------------------------| (x3)
D|--77777777--------------------------------|
A|--55555555--77777777--99999999--55555555--|
E|------------55555555--77777777--33333333--|

Pre-Chorus:

Guitar 1 [Lead (Overdriven)]

e|--------------------|
B|--------------------|
G|--------------------|(x1)
D|--------------------|
A|--5555555555555555--|
E|--3333333333333333--|

Chorus:

Guitar 1 [Lead (Overdriven)]

e|----------------------------------------------------------|
B|----------------------------------------------------------|
G|----------------------------------------------------------|
D|------7----7----------------------------------------------|
A|--5-5-----5-------7----7------9-------9----9------5----5--|
E|--------------5-5-----5---7-7-----7-7-----7---3-3-----3---|


Guitar 2 [Rhythm (Clean)]
    D               A                B                G
e|--2~--------------0----------------7----------------3---------------|
B|--3~--------------2----------------7----------------3---------------|
G|--2~--------------2----------------8----------------0---------------|
D|--0~--------------2----------------9----------------0---------------|
A|--x~--------------0----------------9----------------2---------------|
E|--x~--------------0----------------7----------------3---------------|

Pre-Verse

Guitar 1 [Lead (Overdriven)]

e|---------------------------------------------------------------------|
B|---------------------------------------------------------------------|
G|---------------------------------------------------------------------|
D|------7-----7---7----------------------------------------------------|
A|--5-5---5-5---5-------7-----7---7------9-----9---9------5-----5---5--|
E|------------------5-5---5-5---5----7-7---7-7---7----3-3---3-3---3----|

Verse:

Guitar 1 [Lead (Overdriven)]

e|---------------------------------------------------------------------|
B|---------------------------------------------------------------------|
G|---------------------------------------------------------------------|(x3)
D|------7-----7---7----------------------------------------------------|
A|--5-5---5-5---5-------7-----7---7------9-----9---9------5-----5---5--|
E|------------------5-5---5-5---5----7-7---7-7---7----3-3---3-3---3----|

Guitar 2 [Rhythm (Overdriven)]

e|------------------------------------------|
B|------------------------------------------|
G|------------------------------------------| (x3)
D|--77777777--------------------------------|
A|--55555555--77777777--99999999--55555555--|
E|------------55555555--77777777--33333333--|

Pre-Chorus:

Guitar 1 [Lead (Overdriven)]

e|--------------------|
B|--------------------|
G|--------------------|(x1)
D|--------------------|
A|--5555555555555555--|
E|--3333333333333333--|

Chorus:

Guitar 1 [Lead (Overdriven)]

e|----------------------------------------------------------|
B|----------------------------------------------------------|
G|----------------------------------------------------------|
D|------7----7----------------------------------------------|
A|--5-5-----5-------7----7------9-------9----9------5----5--|
E|--------------5-5-----5---7-7-----7-7-----7---3-3-----3---|


Guitar 2 [Rhythm (Clean)]
    D               A                B                G
e|--2~--------------0----------------7----------------3---------------|
B|--3~--------------2----------------7----------------3---------------|
G|--2~--------------2----------------8----------------0---------------|
D|--0~--------------2----------------9----------------0---------------|
A|--x~--------------0----------------9----------------2---------------|
E|--x~--------------0----------------7----------------3---------------|

Chorus:

Guitar 1 [Lead (Overdriven)]

e|----------------------------------------------------------|
B|----------------------------------------------------------|
G|----------------------------------------------------------|
D|------7----7----------------------------------------------|
A|--5-5-----5-------7----7------9-------9----9------5----5--|
E|--------------5-5-----5---7-7-----7-7-----7---3-3-----3---|


Guitar 2 [Rhythm (Clean)]
    D               A                B                G
e|--2~--------------0----------------7----------------3---------------|
B|--3~--------------2----------------7----------------3---------------|
G|--2~--------------2----------------8----------------0---------------|
D|--0~--------------2----------------9----------------0---------------|
A|--x~--------------0----------------9----------------2---------------|
E|--x~--------------0----------------7----------------3---------------|

Outro:

Guitar 1 [Lead (Overdriven)]
e|---------------------------------------------------------------------|
B|---------------------------------------------------------------------|
G|---------------------------------------------------------------------|
D|------7-----7---7----------------------------------------------------|
A|--5-5---5-5---5-------7-----7---7------9-----9---9------5-----5---5--|
E|------------------5-5---5-5---5----7-7---7-7---7----3-3---3-3---3----|
Tap to rate this tab
 
# A B C D E F G H I J K L M N O P Q R S T U V W X Y Z