Song name
# A B C D E F G H I J K L M N O P Q R S T U V W X Y Z

Misc Unsigned Bands - Rasmus Rowbotham - A Dollar In My Hat tab

Rasmus Rowbotham  - "A dollar in my hat"


Capo in 3rd fret


Intro:

e|-----------------------|                                           |----------|
B|------1----------0-----|                                           |  Intro   |
G|--------2----------0---| x2                                        |  Chorus  |
D|----------2----------0-|                                           |  Verse   |
A|---0-------------------|                                           |  Chorus  |
E|--------------3--------|                                           |  Verse   |
                                                                     |  Chorus  |
e|-----------------------|-----------------------|                   |  Outro   |
B|------1----------0-----|------1-------0h1p0----|                   |----------|
G|--------2----------0---|--------2------------2-|
D|----------2----------0-|----------2------------|
A|---0-------------------|---0-------------------|
E|--------------3--------|-----------------------|

e|-----------------------|
B|------1----------0-----|
G|--------2----------0---| x2
D|----------2----------0-|
A|---0-------------------|
E|--------------3--------|

e|-----------------------|-------3---------------|-----------------------|-----0------1------1-0-|
B|------1----------0-----|----1----1---3------1--|------1------3------1--|-------0------0--------|
G|--------2----------0---|------2----2---2-------|--------0------0-------|---------0------0------|
D|----------2----------0-|--------2--------2-----|----------2------2-----|-----------------------|
A|---0-------------------|---0-------------------|---3-------------------|-----------------------|
E|--------------3--------|-----------------------|-----------------------|---3-------------------|

e|-----------------------|
B|------1----------0-----|
G|--------2----------0---| x2
D|----------2----------0-|
A|---0-------------------|
E|--------------3--------|

e|-----------------------|-------------3/8p0-----|
B|------1----------0-----|------1----------------|
G|--------2----------0---|--------2--------------|
D|----------2----------0-|----------2------------|
A|---0-------------------|---0-------------------|
E|--------------3--------|-----------------------|


Chorus:

e|--0-0-0-0-0-----0-0-0--|--0-0-0-0-0-3-3-3-0----|--3-3-3-3-3p0h3-3-3----|--0-0-0-0-0-----0-0-0--|
B|--1-1-1-1-1p0h1-1-1-1--|--1-1-1-1-1-1-1-1-1----|--0-0-0-0-0-----0-0----|--1-1-1-1-1p0h1-1-1-1--|
G|--2-2-2-2-2-----2-2-2--|--0-0-0-0-0-0-0-0-0----|--0-0-0-0-0-----0-0----|--2-2-2-2-2-----2-2-2--|
D|--2-2-2-2-2-----2-2-2--|--2-2-2-2-2-2-2-2-2----|--0-0-0-0-0-----0-0----|--2-2-2-2-2-----2-2-2--|
A|--0-0-0-0-0-----0-0-0--|--3-3-3-3-3-3-3-3-3----|--2-2-2-2-2-----2-2----|--0-0-0-0-0-----0-0-0--|
E|-----------------------|--0-0-0-0-0-0-0-0-0----|--3-3-3-3-3-----3-3----|-----------------------|

e|--0-0-0-0-0-----0-0-0--|--0-0-0-0-0-3-3-3-0----|--3-3-3-3-3p0h3-3-3-3--|------0----------------|
B|--1-1-1-1-1p0h1-1-1-1--|--1-1-1-1-1-1-1-1-1----|--0-0-0-0-0-----0-0-0--|-----1-----------------|
G|--2-2-2-2-2-----2-2-2--|--0-0-0-0-0-0-0-0-0----|--0-0-0-0-0-----0-0-0--|----2------------------|
D|--2-2-2-2-2-----2-2-2--|--2-2-2-2-2-2-2-2-2----|--0-0-0-0-0-----0-0-0--|---2-------------------|
A|--0-0-0-0-0-----0-0-0--|--3-3-3-3-3-3-3-3-3----|--2-2-2-2-2-----2-2-2--|--0--------------------|
E|-----------------------|--0-0-0-0-0-0-0-0-0----|--3-3-3-3-3-----3-3-3--|-----------------------|


Verse:

e|-----------------------|
B|------1----------0-----|
G|--------2----------0---| x2
D|----------2----------0-|
A|---0-------------------|
E|--------------3--------|

e|-----------------------|-----------------------|
B|------1----------0-----|------1-------0h1p0----|
G|--------2----------0---|--------2------------2-|
D|----------2----------0-|----------2------------|
A|---0-------------------|---0-------------------|
E|--------------3--------|-----------------------|

e|-----------------------|
B|------1----------0-----|
G|--------2----------0---| x2
D|----------2----------0-|
A|---0-------------------|
E|--------------3--------|

e|-----------------------|-------------3/8p0-----|
B|------1----------0-----|------1----------------|
G|--------2----------0---|--------2--------------|
D|----------2----------0-|----------2------------|
A|---0-------------------|---0-------------------|
E|--------------3--------|-----------------------|


Outro:

e|-----------------------|
B|------1----------0-----|
G|--------2----------0---| x2
D|----------2----------0-|
A|---0-------------------|
E|--------------3--------|

e|-----------------------|-----------------------|
B|------1----------0-----|------1-------0h1p0----|
G|--------2----------0---|--------2------------2-|
D|----------2----------0-|----------2------------|
A|---0-------------------|---0-------------------|
E|--------------3--------|-----------------------|

e|-----------------------|
B|------1----------0-----|
G|--------2----------0---| x2
D|----------2----------0-|
A|---0-------------------|
E|--------------3--------|

e|-----------------------|-------3---------------|-----------------------|-----0------1------1-0-|
B|------1----------0-----|----1----1---3------1--|------1------3------1--|-------0------0--------|
G|--------2----------0---|------2----2---2-------|--------0------0-------|---------0------0------|
D|----------2----------0-|--------2--------2-----|----------2------2-----|-----------------------|
A|---0-------------------|---0-------------------|---3-------------------|-----------------------|
E|--------------3--------|-----------------------|-----------------------|---3-------------------|

e|-----------------------|
B|------1----------0-----|
G|--------2----------0---| x2
D|----------2----------0-|
A|---0-------------------|
E|--------------3--------|

e|-----------------------|-------------0h1p0-----|
B|------1----------0-----|------1--------0h1p0---|
G|--------2----------0---|--------2-----------~2-|
D|----------2----------0-|----------2------------|
A|---0-------------------|---0-------------------|
E|--------------3--------|-----------------------|
                                                                      
Tap to rate this tab
# A B C D E F G H I J K L M N O P Q R S T U V W X Y Z