Song name
# A B C D E F G H I J K L M N O P Q R S T U V W X Y Z

Misc Unsigned Bands - Critical Masses - No School Today Part 1 tab

hey im the rythm guitar for this band and im going to give yall my parts for the song 
the bass(beacuz i made the bassline also)
 This is part one because i havent finished the chorus yet but im working on it.

Tuning: Standard

Intro
root note: B          F#       D#         G#
      e------------------------------------------|
      B------------------------------------------|
      G------------------------------------------|  (x3)
      D-4-4-4-4-4-----------6-6-6-6-6------------|
      A-2-2-2-2-2-4-4-4-4-4-4-4-4-4-4-6-6-6-6-6--|
      E-----------2-2-2-2-2-----------4-4-4-4-4--|


      G------------------------------------------|
      D------------------------------------------|  (x3)
      A-2-2-2-2-2-----------4-4-4-4-4------------|
      E-----------2-2-2-2-2-----------4-4-4-4-4--|

Verse 1
========
e-------------------------------------------------|
B-------------------------------------------------|
G-------------------------------------------------|
D-4-4-4-4-4---------------6-6-6-6-----------------|
A-2-2-2-2-2-4-4-4-4-4-4-4-4-4-4-4-6-6-6-6-6-6-6-6-|
E-----------2-2-2-2-2-2-2---------4-4-4-4-4-4-4-4-|

G-------------------------------------------------|
D-------------------------------------------------|
A-2-2-2-2-2---------------4-4-4-4-----------------|
E-----------2-2-2-2-2-2-2---------6-6-6-6-6-6-6-6-|


e-------------------------------------------|
B-------------------------------------------|
G-------------------------------------------|
D---------4-4-4-4-4-4-4-----------6-6-6-6-6-|
A-4-4-4-4-2-2-2-2-2-2-2-6-6-6-6-6-4-4-4-4-4-|
E-2-2-2-2---------------4-4-4-4-4-----------|

 sorry i got lazy yall should be able to find it out
Verse 2
=========
e---------------------------------------------------------|
B---------------------------------------------------------|
G---------------------------------------------------------|
D-4-4-4-4-----------6-6-6-6---------4-4-4-4---------6-6-6-|
A-2-2-2-2-4-4-4-4-4-4-4-4-4-6-6-6-6-2-2-2-2-4-4-4-4-4-4-4-|
E---------2-2-2-2-2---------4-4-4-4---------2-2-2-2-2-----|


and i based my solo on major pentatonic scales of B, F#, D#, and G#
and im going to let yall find that part out lol
Tap to rate this tab
# A B C D E F G H I J K L M N O P Q R S T U V W X Y Z