Song name
# A B C D E F G H I J K L M N O P Q R S T U V W X Y Z

Misc Unsigned Bands - Cue Ball - Sad Soul tab

E-0-4-3-2---0---0-4-3-2---0---0-4-3-2-------------|
B-------------------------------------------------|
G-------------------------------------------------|
D-------------------------------------------------|
A-------------------------------------------------|
E-------------------------------------------------|

E-0-0-0-2-3-3-2-2-0--0--0--0-2-3-3-2-2------------|
B-------------------------------------------------|
G-------------------------------------------------|
D-------------------------------------------------|
A-------------------------------------------------|
E-------------------------------------------------|

E-0--0--0-2-3-3-2-2-0--0--0--0-2-3-3-2-2----------|
B-------------------------------------------------|
G-------------------------------------------------|
D-------------------------------------------------|
A-------------------------------------------------|
E-------------------------------------------------|

E-0-0------0-0------0-0------3-3----3-3-----------|
B-------------------------------------------------|
G-------------------------------------------------|
D-----------------------------------0-------0-----|
A-----0---------0--------0-----------0-------0----|
E-------------------------------------------------|

E-0-0------0-0------0-0------3-3----3-3-----------|
B-------------------------------------------------|
G-------------------------------------------------|
D-----------------------------------0-------0-----|
A-----0---------0--------0-----------0-------0----|
E-------------------------------------------------|

E-0--0--0-2-3-3-2-2-0--0--0--0-2-3-3-2-2----------|
B-------------------------------------------------|
G-------------------------------------------------|
D-------------------------------------------------|
A-------------------------------------------------|
E-------------------------------------------------|

E-0--0--0-2-3-3-2-2-0--0--0--0-2-3-3-2-2----------|
B-------------------------------------------------|
G-------------------------------------------------|
D-------------------------------------------------|
A-------------------------------------------------|
E-------------------------------------------------|

E-0-4-3-2---0---0-4-3-2---0---0-4-3-2----0-------|
B------------------------------------------------|
G------------------------------------------------|
D------------------------------------------------|
A------------------------------------------------|
E------------------------------------------------|
Tap to rate this tab
# A B C D E F G H I J K L M N O P Q R S T U V W X Y Z