Song name
# A B C D E F G H I J K L M N O P Q R S T U V W X Y Z

Misc Unsigned Bands - Wasted Hours Lilly Rouge - Watch The Sky tab

I have not tabbed the solo as I just can't be bothered and that would require me writing 
I play....

Hope you like this tab, it's the first one I've done but I'm 100% sure it's accurate.
complaints email: bon_scott_forever@hotmail.com

(Intro. Also Use for verses)
E-------------------------------------------x-|
B---------3----------3-------3-------3------x-|
G------2----------0-------0-------0---------x-|
D---0---------3-----------------------------x-|
A----------------------3--------------------x-|
E-----------------------------3-------------x-|

2nd Guitar Part (Listen to the recording for correct timing)
E------5------5--------x-|
B----------------------x-|
G--7------7------------x-|
D----------------------x-|
A----------------------x-|
E----------------------x-|

Interval:
E--6-------8-------3---------------x-|
B--6-------8-------3---------------x-|
G--0-------0-------0---------------x-|
D--0-------0-------0---------------x-|
A--5-------7-------2---------------x-|
E--6-------8-------3---------------x-|

Chorus:
E--2-----3-----3--------------------x-|
B--3-----3-----3--------------------x-|
G--2-----0-----0--------------------x-|
D--0-----2-----0--------------------x-|
A--------3-----2--------------------x-|
E--------------3--------------------x-|

There you go kiddies have fun!
Tap to rate this tab
# A B C D E F G H I J K L M N O P Q R S T U V W X Y Z