Song name
# A B C D E F G H I J K L M N O P Q R S T U V W X Y Z

Misc Unsigned Bands - Versaemerge - Forced Doors On The 14th Floor tab

Help us improve GuitareTab! Take a short survey!
-------------------------------------------------------------------------------
                   Forced Doors on the 14th Floor - VersaEmerge
-------------------------------------------------------------------------------
Tabbed by: Alec McGill
Email: goodjob.alec@hotmail.com

Tuning: Drop D (eBGDAD)

Okay, so this is my first time writing out a tab, so please cut me some slack. I'm about
sure this tab is correct. I didn't write out the counting, seeing as its very
However, if you listen to the song, you should be able to tell how fast to play the 
If you have any questions or comments about it, please contact me via my email. Have fun!

e|---------------------------------------------------------------------------|
B|--/10-11----10-----------------------9b10----------------------------------|
G|--------12----10-12-9-10----9------------12p10h12~~~-10-9------------------|
D|-------------------------12---10-12-----------------------10-10x-----------|
A|---------------------------------------------------------------------------|
D|---------------------------------------------------------------------------|


e|--13-12-------------------------------------------------13-12--------------|
B|--------13-------------------------------------13-------------13-15~~~-----|
G|-----------15-14-12-14-------------------15-14----15-14--------------------|
D|-----------------------15-14-12-15-14-15-----------------------------------|
A|---------------------------------------------------------------------------|
D|---------------------------------------------------------------------------|


e|---------------------------------------------------------------------------|
B|--15-13p10----15-13p10----15-13p10----15-13p10-----------------------------|
G|----------12----------12----------12----------12---------------------------|
D|---------------------------------------------------------------------------|
A|---------------------------------------------------------------------------|
D|---------------------------------------------------------------------------|
    t   t    t   t  t    t   t  t    t   t  t    t

e|---------------------------------------------------------------------------|
B|--17-13p10----17-13p10----17-13p10----17-13p10-----------------------------|
G|----------12----------12----------12----------12---------------------------|
D|---------------------------------------------------------------------------|
A|---------------------------------------------------------------------------|
D|---------------------------------------------------------------------------|
    t   t    t   t  t    t   t  t    t   t  t    t

e|---------------------------------------------------------------------------|
B|--18-13p10----18-13p10----18-13p10----18-13p10-----------------------------|
G|-----------12----------12----------12----------12--------------------------|
D|---------------------------------------------------------------------------|
A|---------------------------------------------------------------------------|
D|---------------------------------------------------------------------------|
    t   t    t   t  t    t   t  t    t   t  t    t


e|--------------------------17~~--15-13-12-13-12----12-----------------------|
B|--20-13p10----20-13p10-------------------------15----15-13-15-13-----------|
G|----------12----------12---------------------------------------------------|
D|---------------------------------------------------------------------------|
A|---------------------------------------------------------------------------|
D|---------------------------------------------------------------------------|
    t   t    t   t  t    t        ^This part is played much faster^


e|---------------------12-17-12----12-17~~~-15p13----------------------------|
B|-----13------------13---------13---------------15p13-----------------------|
G|--15----15-14----14---------------------------------14p12h14p12------------|
D|---------------14----------------------------------------------------------|
A|---------------------------------------------------------------------------|
D|---------------------------------------------------------------------------|
    ^         ^     s s s s                    t    t    t

e|---------------------------------------------------------------------------|
B|-------------------15~~~---------------------------------------------------|
G|---------------------------------------------------------------------------|
D|--14p13h14p13--------------------------------------------------------------|
A|-------------15-15---------------------------------------------------------|
D|---------------------------------------------------------------------------|
     t          t  t

Thats it guys! I hope it sounds anything like the real thing.


| /  slide up
| \  slide down
| h  hammer-on
| p  pull-off
| ~  vibrato
| +  harmonic
| b  bend note
| t  Tap note
| S  Sweep Pick
| ^  See side notes
| x  Mute note
===============================================================================
Related for Versaemerge - Forced Doors On The 14th Floor tab