Song name
# A B C D E F G H I J K L M N O P Q R S T U V W X Y Z

Misc Unsigned Bands - Out Of Bondage - My Redeemer Lives tab

GUITAR 1

intro/vurse x

e----------------------------------------------------------------------|
b----------------------------------------------------------------------|
g----------------------------------------------------------------------|
d-----9-9-9-9-9-9-9-9--------------------------------------------------|
a-----7-7-7-7-7-7-7-7---7-7-7-7-7-7-7-7--------------------------------|
e-----------------------5-5-5-5-5-5-5-5--------------------------------|


GUITAR 2

intro/vurse x, pick up on the 2nd repeat of intro with the drums.

e----------------------------------------------------------------------|
b----------------------------------------------------------------------|
g----------------------------------------------------------------------|
d-----9-9-9-9-9-9-9-9--------------------------------------------------|
a-----7-7-7-7-7-7-7-7---7-7-7-7-7-7-7-7--------------------------------|
e-----------------------5-5-5-5-5-5-5-5--------------------------------|

GUITAR 1

bridge

e-----------------------------------------------------------------------|
b-----------------------------------------------------------------------|
g-----------------------------------------------------------------------|
d-----4--4---44-4--4--4-----------------4-4-4-4-4-4-4-4-----------------|
a-----2--2---22-2--2--2----7--7--7--7---2-2-2-2-2-2-2-2-----------------|
e--------------------------5--5--5--5-----------------------------------|

GUITAR 2

bridge

e-----------------------------------------------------------------------|
b-----------------------------------------------------------------------|
g-----------------------------------------------------------------------|
d-----4--4---44-4--4--4-----------------4-4-4-4-4-4-4-4-----------------|
a-----2--2---22-2--2--2----7--7--7--7---2-2-2-2-2-2-2-2-----------------|
e--------------------------5--5--5--5-----------------------------------|


GUITAR 1

chorus x2, with light distortion

e----------------------------------------------------------------------|
b----------------------------------------------------------------------|
g----------------------------------------------------------------------|
d-----9-9-9-9-9-9-9-9---------------------6-6-6-6-6-6-6-6--------------|
a-----7-7-7-7-7-7-7-7---7-7-7-7-7-7-7-7---4-4-4-4-4-4-4-4--------------|
e-----------------------5-5-5-5-5-5-5-5--------------------------------|


e-----------------------------------------------------------------------|
b-----------------------------------------------------------------------|
g-----------------------------------------------------------------------|
d-----4-4-4-4-4-4-4-4---------------------------------------------------|
a-----2-2-2-2-2-2-2-2---------------------------------------------------|
e-----------------------------------------------------------------------|


GUITAR 2

chorus x2, with medium distortion, but dont get too distorted.

e----------------------------------------------------------------------|
b----------------------------------------------------------------------|
g----------------------------------------------------------------------|
d-----9-9-9-9-9-9-9-9---------------------6-6-6-6-6-6-6-6--------------|
a-----7-7-7-7-7-7-7-7---7-7-7-7-7-7-7-7---4-4-4-4-4-4-4-4--------------|
e-----------------------5-5-5-5-5-5-5-5--------------------------------|


e-----------------------------------------------------------------------|
b-----------------------------------------------------------------------|
g-----------------------------------------------------------------------|
d-----4-4-4-4-4-4-4-4---------------------------------------------------|
a-----2-2-2-2-2-2-2-2---------------------------------------------------|
e-----------------------------------------------------------------------|


GUITAR 1

soft chorus x2, palm mute all.

e-----------------------------------------------------------------------|
b-----------------------------------------------------------------------|
g-----------------------------------------------------------------------|
d-----9-9-9-9-9-9-9-9---------------------6-6-6-6-6-6-6-6---------------|
a-----7-7-7-7-7-7-7-7---7-7-7-7-7-7-7-7---4-4-4-4-4-4-4-4---------------|
e-----------------------5-5-5-5-5-5-5-5---------------------------------|
  pm--------------------------------------------------------------------|

e------------------------------------------------------------------------|
b------------------------------------------------------------------------|
g------------------------------------------------------------------------|
d-----4-4-4-4-4-4-4-4----------------------------------------------------|
a-----2-2-2-2-2-2-2-2----------------------------------------------------|
e------------------------------------------------------------------------|
  pm---------------------------------------------------------------------|

GUITAR 2

soft chorus x2, palm mute also.


e----------------------------------------------------------------------|
b----------------------------------------------------------------------|
g----------------------------------------------------------------------|
d------9-9-9-9------------6-6-6-6---4-4-4-4----------------------------|
a-----7-7-7-7---7-7-7-7--4-4-4-4---2-2-2-2-----------------------------|
e--------------5-5-5-5-------------------------------------------------|

GUITAR 1

outro
e----------------------------------------------------------------------|
b----------------------------------------------------------------------|
g----------------------------------------------------------------------|
d-----9-9-9-9-9-9-9-9---------------------6-6-6-6-6-6-6-6--------------|
a-----7-7-7-7-7-7-7-7---7-7-7-7-7-7-7-7---4-4-4-4-4-4-4-4--------------|
e-----------------------5-5-5-5-5-5-5-5--------------------------------|


e-----------------------------------------------------------------------|
b-----------------------------------------------------------------------|
g-----------------------------------------------------------------------|
d-----4-4-4-4-4-4-4-4---9~~---------------------------------------------|
a-----2-2-2-2-2-2-2-2---7~~---------------------------------------------|
e-----------------------------------------------------------------------|

GUITAR 2

outro
e----------------------------------------------------------------------|
b----------------------------------------------------------------------|
g----------------------------------------------------------------------|
d-----9-9-9-9-9-9-9-9---------------------6-6-6-6-6-6-6-6--------------|
a-----7-7-7-7-7-7-7-7---7-7-7-7-7-7-7-7---4-4-4-4-4-4-4-4--------------|
e-----------------------5-5-5-5-5-5-5-5--------------------------------|


e-----------------------------------------------------------------------|
b-----------------------------------------------------------------------|
g-----------------------------------------------------------------------|
d-----4-4-4-4-4-4-4-4---9~~---------------------------------------------|
a-----2-2-2-2-2-2-2-2---7~~---------------------------------------------|
e-----------------------------------------------------------------------|
Tap to rate this tab
# A B C D E F G H I J K L M N O P Q R S T U V W X Y Z