Song name
# A B C D E F G H I J K L M N O P Q R S T U V W X Y Z

Misc Unsigned Bands - The Rebel - Cueball tab

The Rebel
By Nick Niendorf



~=let it ring  b=bend  


E|-0--5--4--32~----0--5--4-3~~~-------------------------------|
B|--------------------------------------------------------------|
G|--------------------------------------------------------------|
D|--------------------------------------------------------------|
A|--------------------------------------------------------------|
e|--------------------------------------------------------------|
                 Gonna be livin easy     Gonna be living free

      E|--------------------------------------------------------------| 
      B|--------------------------------------------------------------|
      G|--------------------------------------------------------------|
      D|-0-2-3-4-4-3-2-2-3-4-3~---------------------------------------|
      A|--------------------------------------------------------------|
      e|--------------------------------------------------------------|
              Aint no punk gonna put a price tag on me

E|--------------------------------------------------------------|
B|--------------------------------------------------------------|
G|--------------------------------------------------------------|
D|--------------------------------------------------------------|
A|--------------------------------------------------------------|
e|--9-10-11--4-5-6--3-4-5---4-66~-------------------------------|
        Ya may think my life wasnt filled with pain, but tell me

E|-4-5--------4-5-----------------------------------------------|
B|----5-----------5---------------------------------------------|
G|-----5-----------5b-------------------------------------------|
D|--------------------------------------------------------------|
A|--------------------------------------------------------------|
e|--------------------------------------------------------------|
                    When youre a slave whats there to gain?

E|-3-5-7-9---3-5-77-77-2-3~~~-----------------------------------|
B|--------------------------------------------------------------|
G|--------------------------------------------------------------|
D|--------------------------------------------------------------|
A|--------------------------------------------------------------|
e|--------------------------------------------------------------|
                     I told the manI was runnin, runnin away

E|--------------------------------------------------------------|
B|--------------------------------------------------------------|
G|--------------------------------------------------------------|
D|--------------------------------------------------------------|
A|--------------------------------------------------------------|
e|-3-4-5-6-6-5-4-3-7-6-5-4~~~-----------------------------------|
                    Those fools didnt listen to what I had to say




E|-65-4-3-2-3-4-6~~~-------------------------------------------|
B|--------------------------------------------------------------|
G|--------------------------------------------------------------|
D|--------------------------------------------------------------|
A|--------------------------------------------------------------|
e|--------------------------------------------------------------|
                   Why should I work without being paid

E|-65-4-3-2-3-4-6-7-8-7-6~-------------------------------------|
B|--------------------------------------------------------------|
G|--------------------------------------------------------------|
D|--------------------------------------------------------------|
A|--------------------------------------------------------------|
e|--------------------------------------------------------------|
                    Especially when the man dont come to my aid


E|-0--5--4--32~----0--5--4-3~~~-------------------------------|
B|--------------------------------------------------------------|
G|--------------------------------------------------------------|
D|--------------------------------------------------------------|
A|--------------------------------------------------------------|
e|--------------------------------------------------------------|
                 Gonna be livin easy     Gonna be living free

E|--------0~~~--------------------------------------------------|
B|--------------------------------------------------------------|
G|--------------------------------------------------------------|
D|--------------------------------------------------------------|
A|--------------------------------------------------------------|
e|--3~----------------------------------------------------------|
                    Huh YEA!!!

E|-03-5-6-73-4-5~~--------------------------------------------|
B|--------------------------------------------------------------|
G|--------------------------------------------------------------|
D|--------------------------------------------------------------|
A|--------------------------------------------------------------|
e|--------------------------------------------------------------|
                     And me and my brothers are gonna get

E|-3-0~~---3-0~~-------3-0--------------------------------------|
B|--------------------------------------------------------------|
G|--------------------------------------------------------------|
D|--------------------------------------------------------------|
A|--------------------------------------------------------------|
e|-------------------------4-5~~--------------------------------|
                     Higher     Higher!                  HIGHER THAN YOU!!!!!









E|--------------------------------------------------------------|
B|--------------------------------------------------------------|
G|--------------------------------------------------------------|
D|--------------------------------------------------------------|
A|--------------------------------------------------------------|
e|-4-55-6-5-4~-------------------------------------------------|
                       Ya gotta make your own aim

E|--------------------------------------------------------------|
B|--------------------------------------------------------------|
G|--------------------------------------------------------------|
D|--------------------------------------------------------------|
A|--------------------------------------------------------------|
e|-4-55-6-5-4~~~-----------------------------------------------|
                     Make the world your game

E|-1--3-35-6-5-4-3~`-------------------------------------------|
B|--------------------------------------------------------------|
G|--------------------------------------------------------------|
D|--------------------------------------------------------------|
A|--------------------------------------------------------------|
e|--------------------------------------------------------------|
                    You gotta do what ya do best

E|--1--3-35-6--5-4-3-1-3~~-------------------------------------|
B|--------------------------------------------------------------|
G|--------------------------------------------------------------|
D|--------------------------------------------------------------|
A|--------------------------------------------------------------|
e|--------------------------------------------------------------|
                      And ya gotta do it better than all the rest!		

E|--35~~-------------------------------------------------------|
B|--------------------------------------------------------------|
G|--------------------------------------------------------------|
D|--------------------------------------------------------------|
A|--------------------------------------------------------------|
e|--------------------------------------------------------------|
          Oh Oh!

E|--35~~-------------------------------------------------------|
B|--------------------------------------------------------------|
G|--------------------------------------------------------------|
D|--------------------------------------------------------------|
A|--------------------------------------------------------------|
e|--------------------------------------------------------------|
          Oh Oh!

E|-3~~~~------3-3~~~~~~~~~~~------------------------------------|
B|--------------------------------------------------------------|
G|--------------------------------------------------------------|
D|--------------------------------------------------------------|
A|--------------------------------------------------------------|
e|-----------------0-0-0----------------------------------------|
         Yea!

Tap to rate this tab
# A B C D E F G H I J K L M N O P Q R S T U V W X Y Z