Song name
# A B C D E F G H I J K L M N O P Q R S T U V W X Y Z

Misc Unsigned Bands - Shellshock - Moro tab

Help us improve GuitareTab! Take a short survey!
|-----------------------|				10/4
|-----------------------|
|-----------------------|
|-2-2-2-2-22-2-2-2-2-22-|
|-2-2-2-2-22-3-3-3-3-33-|
|-0-0-0-0-00-0-0-0-0-00-|

|-----------------------|				10/4
|-----------------------|
|-----------------------|
|-2-2-2-2-22-2-2-2-2-22-|
|-2-2-2-2-22-3-3-3-3-33-|
|-0-0-0-0-00-0-0-0-0-00-|

|---------------------------Z-|               14/4
|---------------------------Z-|
|---------------------------Z-|
|-2-2-2-2-22-2-2--5--4------Z-|
|-2-2-2-2-22-3-3--3--2--5-2-Z-|
|-0-0-0-0-00-0-0-x--x--x3-0-Z-| 



|-----------------------|		10/4
|-----------------------|
|-----------------------|
|-----------------------|
|-----------------------|
|-12-------5---7---3----|

|-----------------------|		10/4
|-----------------------|
|-----------------------|
|-----------------------|
|-----------------------|
|-12-------5---7---3----|


|--------------------------------|			14/4
|--------------------------------|
|--------------------------------|
|--------------------------5-4-2-|
|------------------------5-3-2-2-|
|-12-------5---7---57x35x3-----0-|
Related for Shellshock - Moro tab