Song name
# A B C D E F G H I J K L M N O P Q R S T U V W X Y Z

Misc Unsigned Bands - D Is For Death - The Grave tab

Help us improve GuitareTab! Take a short survey!
This is a song I made up with the artist name "D is for Death"

1
E|------------------------------------------------|
B|------------------------------------------------|
G|------------------------------------------------|
D|------------------------------------------------|
A|-3-3-3-7-7-7-3-3-3-7-7-7-3-3-3-7-7-7-3-3-3-7-7-7|
E|-1-1-1-5-5-5-1-1-1-5-5-5-1-1-1-5-5-5-1-1-1-5-5-5|

2
E|-----------------6-6-6-6-------------------|
B|-----------------6-6-6-6-------------------|
G|-----------------6-6-6-6-------------------|
D|-------------------------------------------|
A|-2-2-2-2-2-2-2-2---------------------------|
E|-0-0-0-0-0-0-0-0---------------------------| (x2)
Go back to 1

3
E|-------------------------------------------|
B|-------------------------------------------|
G|-8-9-8-10----9-9---------------------------|
D|-------------------------------------------|
A|-------------------------------------------|
E|-------------------------------------------| (x4)

Go back to 2
Related for D Is For Death - The Grave tab