Song name
# A B C D E F G H I J K L M N O P Q R S T U V W X Y Z

Misc Unsigned Bands - The Hustlers - Stick And Stones tab

main riff:
G|-------------------------------------------------------------------------|
D|-------------------------------------------------------------------------|
A|-------------------------------------------------------------------------|
E|--0---8--0--7--0--0--5--0--0--3-2-0-3-2-0-3-2-0-x4-----------------------|

vers:
G|-------------------------------------------------------------------------|
D|-------------------------------------------------------------------------|
A|-------------------------------------------------------------------------|
E|--0--0--0---0--0--0---0--0--0---0--0--0---0--0--0---0--0--0---0--0--0---0|

G|-------------------------------------------------------------------------|
D|-------------------------------------------------------------------------|
A|--7-7-7-7-7-7-7----------------------------------------------------------|
E|-------------------------------------------------------------------------|

G|-------------------------------------------------------------------------|
D|-------------------------------------------------------------------------|
A|-------------------------------------------------------------------------|
E|--3-3---3-3--3-3-3--3-3--3-3--333-333-333-3-3--3-3-3--3-3-3--3-3---------|

Stopp

G|-------------------------------------------------------------------------|
D|-------------------------------------------------------------------------|
A|-------------------------------------------------------------------------|
E|--3-3-4-3-4-3------------------------------------------------------------|

refreng
G|-------------------------------------------------------------------------|
D|-------------------------------------------------------------------------|
A|-------------------------------------------------------------------------|
E|--0-00-3-0---5-3-5-6-5-3-5---0-0-3-0-0-0-0---6-6-5-5-6-5-3---------------|

G|-------------------------------------------------------------------------|
D|-------------------------------------------------------------------------|
A|-------------------------------------------------------------------------|
E|--0-00-3-0---5-3-5-6-5-3-5---0-0-3-0-0-0-0---6-6-5-3-5-6-5-3-------------|

main riff:
G|-------------------------------------------------------------------------|
D|-------------------------------------------------------------------------|
A|-------------------------------------------------------------------------|
E|--0---8--0--7--0--0--5--0--0--3-2-0--3-2-0--3-2-0-x3---------------------|

G|-------------------------------------------------------------------------|
D|-------------------------------------------------------------------------|
A|-------------------------------------------------------------------------|
E|--0---8--0--7--0--0--5--0--0--3-2-0--3-2-0--3-2-0------------------------|

G|-------------------------------------------------------------------------|
D|-------------------------------------------------------------------------|
A|-------------------------------------------------------------------------|
E|--3-2-0--3-2-0--3-2-0--3-2-0--x2---0--3-3--------------------------------|

vers:
G|-------------------------------------------------------------------------|
D|-------------------------------------------------------------------------|
A|-------------------------------------------------------------------------|
E|--0--0--0---0--0--0---0--0--0---0--0--0---0--0--0---0--0--0---0--0--0---0|

G|-------------------------------------------------------------------------|
D|-------------------------------------------------------------------------|
A|--7-7-7-7-7-7-7----------------------------------------------------------|
E|-------------------------------------------------------------------------|

G|-------------------------------------------------------------------------|
D|-------------------------------------------------------------------------|
A|-------------------------------------------------------------------------|
E|--3-3---3-3--3-3-3--3-3--3-3--333-333-333-3-3--3-3-3--3-3-3--3-3---------|

Stopp

G|-------------------------------------------------------------------------|
D|-------------------------------------------------------------------------|
A|-------------------------------------------------------------------------|
E|--3-3-4-3-4-3------------------------------------------------------------|

refreng
G|-------------------------------------------------------------------------|
D|-------------------------------------------------------------------------|
A|-------------------------------------------------------------------------|
E|--0-00-3-0---5-3-5-6-5-3-5---0-0-3-0-0-0-0---6-6-5-5-6-5-3---------------|

G|-------------------------------------------------------------------------|
D|-------------------------------------------------------------------------|
A|-------------------------------------------------------------------------|
E|--0-00-3-0---5-3-5-6-5-3-5---0-0-3-0-0-0-0---6-6-5-3-5-6-5-3--2--1-------|

brekk:
G|-------------------------------------------------------------------------|
D|-------------------------------------------------------------------------|
A|-------------------------------------------------------------------------|
E|--0-0-1-0---0-0-1-0---0-0-1-0---0-0-0-1-1-1-1----------------------------|

G|-------------------------------------------------------------------------|
D|-------------------------------------------------------------------------|
A|-------------------------------------------------------------------------|
E|--0-0-1-0---0-0-1-0---0-0-1-0---0-0-1-0----------------------------------|

stopp

G|----------------------------------------------------------------------|
D|----------------------------------------------------------------------|
A|-----------------------------1-1-1-1-1-1------------------------------|
E|--0-0-0-0--1-1-1-1--0-0-0-0---------------0-0-0-0--1-1-1-1--0-0-0-0---|

G|----------------------------------------------------------------------|
D|----------------------------------------------------------------------|
A|----------------------------------------------------------------------|
E|--5-5-5-5-5-5---------------------------------------------------------| x2

solo:
G|----------------------------------------------------------------------|
D|----------------------------------------------------------------------|
A|-----------------------------1-1-1-1-1-1------------------------------|
E|--0-0-0-0--1-1-1-1--0-0-0-0---------------0-0-0-0--1-1-1-1--0-0-0-0---|

G|----------------------------------------------------------------------|
D|----------------------------------------------------------------------|
A|----------------------------------------------------------------------|
E|--5-5-5-5-5-5---------------------------------------------------------| x2

G|-------------------------------------------------------------------------|
D|-------------------------------------------------------------------------|
A|-------------------------------------------------------------------------|
E|--0-0-1-0---0-0-1-0---0-0-1-0---0-0-1-0----------------------------------|

stopp

solo fortsetter:

G|-------------------------------------------------------------------------|
D|-------------------------------------------------------------------------|
A|-------------------------------------------------------------------------|
E|--0---8--0--7--0--0--5--0--0--3-2-0-3-2-0-3-2-0-x4-----------------------|

G|-------------------------------------------------------------------------|
D|-------------------------------------------------------------------------|
A|-------------------------------------------------------------------------|
E|--0-0-1-0-0-1-0-0-0-1-1-1-1---0-0-1-0-0-1-0-0-0-0---0-0-1-0-0-1-0-0-0----|

G|-------------------------------------------------------------------------|
D|-------------------------------------------------------------------------|
A|-------------------------------------------------------------------------|
E|--1-1-1-1---0-0-1-0-0-1-0-0-0-0-0-00-------------------------------------|

refeng med stopp:

refreng
G|---------------------------------------------------------------------------------------------|
D|---------------------------------------------------------------------------------------------|
A|---------------------------------------------------------------------------------------------|
E|--------------5-3-5-6-5-3-5-------------------6-6-5-5-6-5-3-------------- sticks and stones--|            may break my bones
G|---------------------------------------------------------------------------------------------|
D|---------------------------------------------------------------------------------------------|
A|---------------------------------------------------------------------------------------------|
E|-------------5-3-5-6-5-3-5-------------------6-6-5-3-5-6-5-3---------------------------------|
but whips and..              exites me!

refreng
G|-------------------------------------------------------------------------|
D|-------------------------------------------------------------------------|
A|-------------------------------------------------------------------------|
E|--0-00-3-0---5-3-5-6-5-3-5---0-0-3-0-0-0-0---6-6-5-5-6-5-3---------------|

G|-------------------------------------------------------------------------|
D|-------------------------------------------------------------------------|
A|-------------------------------------------------------------------------|
E|--0-00-3-0---5-3-5-6-5-3-5---0-0-3-0-0-0-0---6-6-5-3-5-6-5-3-------------|

main riff:
G|-------------------------------------------------------------------------|
D|-------------------------------------------------------------------------|
A|-------------------------------------------------------------------------|
E|--0---8--0--7--0--0--5--0--0--3-2-0--3-2-0--3-2-0-x3---------------------|

G|-------------------------------------------------------------------------|
D|-------------------------------------------------------------------------|
A|-------------------------------------------------------------------------|
E|--0---8--0--7--0--0--5--0--0--3-2-0--3-2-0--3-2-0------------------------|

G|-------------------------------------------------------------------------|
D|-------------------------------------------------------------------------|
A|-------------------------------------------------------------------------|
E|--3-2-0--3-2-0--3-2-0--3-2-0--x4---0--3-3-0------------------------------|
Tap to rate this tab
# A B C D E F G H I J K L M N O P Q R S T U V W X Y Z