Song name
# A B C D E F G H I J K L M N O P Q R S T U V W X Y Z

Misc Unsigned Bands - Metalcaust - The Rotting tab

Intro (Trem Picking)
D|----------------------------------------------------------|
A|----------------------------------------------------------|
F|----------------------------------------------------------|
C|----------------------------------------------------------|
G|----------------------------------------------------------|
C|-00002222666600002222666600660000222255550000222255550055-| X2 

D|------------------------------------------------------|
A|------------------------------------------------------|
F|------------------------------------------------------|
C|------------------------------------------------------|
G|------------------------------------------------------|
C|-0000777788880000777788880088000033335555333355550022-| X2

Verse 1
D|---------------------------------------------|
A|---------------------------------------------|
F|---------------------------------------------|
C|-3-2------------------3-2--------------------|
G|-1-0-3----------------1-0-2------------------|
C|-----3-11111111111111-----2-0000000000000000-| X3 
pm       ..............       ................
D|------------------------------|
A|------------------------------|
F|------------------------------|
C|-3-2------------------3-2---0-|
G|-1-0-3----------------1-0-2-0-|
C|-----3-11111111111111-----2-0-|
pm       ..............       .
Chorus 
D|---------------------------------------------------------------|
A|---------------------------------------------------------------|
F|---------------------------------------------------------7/8\5-|
C|---------------------------------------------------------x-x-x-|
G|-0-0---0-0---0-0---0-0---00-3\1--0-0---0-0---0-0---0-1-0-5/6\3-|
C|-0-0---0-0---0-0---0-0---00-3\1--0-0---0-0---0-0---0-1-0-------| 
pm . .   . .   . .   . .   ..      . .   . .   . .   . . .
D|---------------------------------------------------------------|
A|---------------------------------------------------------------|
F|---------------------------------------------------------7/8\4-|
C|---------------------------------------------------------x-x-x-|
G|-0-0---0-0---0-0---0-0---00-3\1--0-0---0-0---0-0---0-1-0-5/6\2-|
C|-0-0---0-0---0-0---0-0---00-3\1--0-0---0-0---0-0---0-1-0-------|
pm . .   . .   . .   . .   ..      . .   . .   . .   . . .
D|---------------------------------------------------------------|
A|---------------------------------------------------------------|
F|---------------------------------------------------------7/8\5-|
C|---------------------------------------------------------x-x-x-|
G|-0-0---0-0---0-0---0-0---00-3\1--0-0---0-0---0-0---0-1-0-5/6\3-|
C|-0-0---0-0---0-0---0-0---00-3\1--0-0---0-0---0-0---0-1-0-------| 
pm . .   . .   . .   . .   ..      . .   . .   . .   . . .
D|-----------------------|
A|-----------------------|
F|-----------------------|
C|-----------------------|
G|-0-0---0-0---0-0---0-0-|
C|-0-0---0-0---0-0---0-0-| 
pm . .   . .   . .   . . 
Verse 2 
D|-----------------------------------------------|
A|------------------------------------------<5>--|
F|------------------------------------------<5>--|
C|--------------------4---------------------<5>--|
G|-0--3\2--0--3\2--0--2--0--3\2--0--3\2--0-------|
C|-0--3\2--0--3\2--0-----0--3\2--0--3\2--0-------|
pm .       .       .     .       .       . 
D|-----------------------------------------------|
A|------------------------------------------<7>--|
F|------------------------------------------<7>--|
C|--------------------3---------------------<7>--|
G|-0--3\2--0--3\2--0--1--0--3\2--0--3\2--0-------|
C|-0--3\2--0--3\2--0-----0--3\2--0--3\2--0-------| X2 
pm .       .       .     .       .       . 
Chorus 
D|---------------------------------------------------------------|
A|---------------------------------------------------------------|
F|---------------------------------------------------------7/8\5-|
C|---------------------------------------------------------x-x-x-|
G|-0-0---0-0---0-0---0-0---00-3\1--0-0---0-0---0-0---0-1-0-5/6\3-|
C|-0-0---0-0---0-0---0-0---00-3\1--0-0---0-0---0-0---0-1-0-------| 
pm . .   . .   . .   . .   ..      . .   . .   . .   . . . 
D|---------------------------------------------------------------|
A|---------------------------------------------------------------|
F|---------------------------------------------------------7/8\4-|
C|---------------------------------------------------------x-x-x-|
G|-0-0---0-0---0-0---0-0---00-3\1--0-0---0-0---0-0---0-1-0-5/6\2-|
C|-0-0---0-0---0-0---0-0---00-3\1--0-0---0-0---0-0---0-1-0-------|
pm . .   . .   . .   . .   ..      . .   . .   . .   . . . 
D|---------------------------------------------------------------|
A|---------------------------------------------------------------|
F|---------------------------------------------------------7/8\5-|
C|---------------------------------------------------------x-x-x-|
G|-0-0---0-0---0-0---0-0---00-3\1--0-0---0-0---0-0---0-1-0-5/6\3-|
C|-0-0---0-0---0-0---0-0---00-3\1--0-0---0-0---0-0---0-1-0-------| 
pm . .   . .   . .   . .   ..      . .   . .   . .   . . . 
D|-----------------------|
A|-----------------------|
F|-----------------------|
C|---------------------0-|
G|-0-0---0-0---0-0---0-0-|
C|-0-0---0-0---0-0---0-0-| 
pm . .   . .   . .   . . 
Breakdown (If ya wanna call it that) 
D|-----------------------------------------------------------------| 
A|-----------------------------------------------------------------|
F|-----------------------------------------------------------------|
C|-----------------------------------------------------------------|
G|-----------------------------------------------------------------|
C|-0-000-0-0-000-0-0-000-0-000-000-0-000-0-0-000-0-0-000-0-000-000-|
pm . ... . . ... . . ... . ... ... . ... . . ... . . ... . ... ...
D|-----------------------------------------------------------------| 
A|-----------------------------------------------------------------|
F|-----------------------------------------------------------------|
C|-----------------------------------------------------------------|
G|-0-000-0-0-000-0-0-000-0-000-000-0-000-0-0-000-0-0-000-0-000-000-|
C|-0-000-0-0-000-0-0-000-0-000-000-0-000-0-0-000-0-0-000-0-000-000-| 
pm . ... . . ... . . ... . ... ... . ... . . ... . . ... . ... ...
D|--------------------------------------------------------------------|
A|--------------------------9-10-9~-----------------------------------|
F|---------------------9-10------------------------------10-9---------|
C|------------6-7-9-10--------------------------6-7-9-10------10-9-6~-|
G|-0-0----7-8------------------------0-0----7-8-----------------------|
C|-0-0--0----------------------------0-0--0---------------------------|
pm      .                                 .
D|--------------------------------------------------------------------|
A|--------------------------9-10-9~-----------------------------------|
F|---------------------9-10------------------------------10-9---------|
C|------------6-7-9-10--------------------------6-7-9-10------10-9-7~-|
G|-0-0----7-8------------------------0-0----7-8-----------------------|
C|-0-0--0----------------------------0-0--0---------------------------| X2 
pm      .                                 . 
Outro 
D|----------------------------------------------------------|
A|----------------------------------------------------------|
F|----------------------------------------------------------|
C|----------------------------------------------------------|
G|----------------------------------------------------------|
C|-00002222666600002222666600660000222255550000222255550055-| X2 

D|------------------------------------------------------|
A|------------------------------------------------------|
F|------------------------------------------------------|
C|------------------------------------------------------|
G|------------------------------------------------------|
C|-0000777788880000777788880088000033335555333355550022-| X2












Tap to rate this tab
# A B C D E F G H I J K L M N O P Q R S T U V W X Y Z