Song name
# A B C D E F G H I J K L M N O P Q R S T U V W X Y Z

Misc Unsigned Bands - Burnout - The Myth Of You And Me tab

Verse 1
E>------------------------------<
B>------------------------------<
G>-----------------------------<
D>-77777777--55555555--<
A>-77777777--55555555--<
E>-55555555--33333333--<                x 6

Chorus
E>--------------------------------<
B>--------------------------------<
G>-5-5-55555----7-7-77777---------<
D>-5-5-55555-5~~5-5-55555--5~-7~~-<
A>-3-3-33333-5~~5-5-55555--5~-7~~-<
E>-----------3~~-----------3~-5~~-<    x2

Verse 2
E>---------------------<
B>---------------------<
G>--77777777-----------<
D>--77777777-77777777--<
A>--55555555-77777777--<
E>-----------55555555--<      x 8

Chorus
E>--------------------------------<
B>--------------------------------<
G>-5-5-55555----7-7-77777---------<
D>-5-5-55555-5~~5-5-55555--5~-7~~-<
A>-3-3-33333-5~~5-5-55555--5~-7~~-<
E>-----------3~~-----------3~-5~~-<    x2

Bridge
E>---------------------------------------------------------<
B>--------------------77777777-----------------------------<
G>--77777777-77777777-77777777-77777777----------77777777--<
D>--77777777-77777777-55555555-77777777-77777777-77777777--<
A>--55555555-55555555----------55555555-77777777-55555555--<
E>--------------------------------------55555555-----------<     x 3

Chorus
E>--------------------------------<
B>--------------------------------<
G>-5-5-55555----7-7-77777---------<
D>-5-5-55555-5~~5-5-55555--5~-7~~-<
A>-3-3-33333-5~~5-5-55555--5~-7~~-<
E>-----------3~~-----------3~-5~~-<    x2

Chorus
E>--------------------------------<
B>--------------------------------<
G>-5-5-55555----7-7-77777---------<
D>-5-5-55555-5~~5-5-55555--5~-7~~-<
A>-3-3-33333-5~~5-5-55555--5~-7~~-<
E>-----------3~~-----------3~-5~~-<


Ending
E>---------------------------------------------------------<
B>--------------------77777777-----------------------------<
G>--77777777-77777777-77777777-77777777----------77777777--<
D>--77777777-77777777-55555555-77777777-77777777-77777777--<
A>--55555555-55555555----------55555555-77777777-55555555--<
E>--------------------------------------55555555-----------<     x 3

Lyrics:
I致e known you for 4 years
And we致e been through the tears 
But we致e also had the time of our lives
I値l always be there for you
But will you be there to
If you need someone to lean on
You know who you can rely upon
I know we値l be friends and nothing more
But what is it about you that I adore

Is this the Myth of You and Me
Or is this some thing that could be
We値l never know cause I値l never throw this away
Now I wonder day by day

Everything she does questions my mental health
It makes me wonder if I can trust myself
I do not mind if this goes on
Cause our friendship will be strong
One year ago was homecoming
But now I want one more round
I know we値l be friends and nothing more
But what is it about you that I adore

Is this the Myth of You and Me
Or is this some thing that could be
We値l never know cause I値l never throw this away
Now I wonder day by day

Is this the Myth of You and Me
Or is this some thing that could be

Together we致e had so much fun
Leeney please keep taking me away
Tap to rate this tab
# A B C D E F G H I J K L M N O P Q R S T U V W X Y Z