Song name
# A B C D E F G H I J K L M N O P Q R S T U V W X Y Z

Misc Unsigned Bands - Grilled Ice - The Song tab

e---------------------------------------------------------------------------|
B---------------------------------------------------------------------------|
G----7--7--7--7--8--8--8--8--7--7--7--7--8--8--8--8-7-7-7-8-8-8-7-7-7-6-6-6-|
D---5--5--5--5--6--6--6--6--5--5--5--5--6--6--6--6--5-5-5-6-6-6-5-5-5-4-4-4-|
A---------------------------------------------------------------------------|
E---------------------------------------------------------------------------|

e----------------------------------------------------------------------------|
B-----------------------------------------------------------6-5^-------------|
G----5--5--5--5--7--7--7--7--5--5--5--5--7--7--7--7----7-5-------------------|
D---7--7--7--7--9--9--9--9--7--7--7--7--9--9--9--9---------------------------|
A----------------------------------------------------------------------------|
E----------------------------------------------------------------------------|

e---------------------------------------------------------------------------|
B---------------------------------------------------------------------------|
G---------------------------------------------------------------------------|
D----0--0--0--0--2--2--2--2--0--0--0--0--2--2--2--2-------------------------|
A---2--2--2--2--0--0--0--0--2--2--2--2--0--0--0--0--------------------------|
E-------------------------------------------------------4-2-0---------------|

e----------------------------------------------------------------------------|
B----------------------------------------------------------------------------|
G----------------------------------------------------------------------------|
D----------------------------------------------------------------------------|
A---77777777-55555555-33333333-22222222-77777777-55555555-33333333-22-22-5/7-|
E----------------------------------------------------------------------------|

e---------------------------------------------------------------------------|
B---------------------------------------------------------------------------|
G---------------------------------------------------------------------------|
D--------6-7-5------------2----2----2-----2---------------------------------|
A------6-7----7-6------0-----------------------2-0----P00000000-------------|
E---5-7---------7-5-0--------4----2----0-----4-----------------44444444-----|

e-------------------------00000000-44444444-22222222-44444444-0-00000000----|
B------------------------p22222222-44444444-22222222-44444444-0-00000000----|
G------------------------p22222222-44444444-22222222-44444444-1-44444444----|
D------------------------p22222222-66666666-44444444-44444444-2-44444444----|
A-------------------------00000000-66666666-44444444-44444444-2-22222222----|
E---22222222-00000000--------------44444444-44444444-44444444-0-xxxxxxxx----|

e---00000000-0-00000000-00000000-0---------------------------------------------|
B---00000000-2-00000000-00000000-2---------------------------------------------|
G---66666666-2-44444444-66666666-2---------------------------------------------|
D---66666666-2-44444444-66666666-2---2---2---2-------------------6-7-5---------|
A---44444444-0-22222222-44444444-0-0----------------2-0------6-7------7-6------|
E---XXXXXXXX-X-XXXXXXXX-XXXXXXXX-X-----4---2---0--4-----5-7--------------7-5-0-|

e-----------------12h13h12h14(x6)---12----11---10---9----8----7---6---5---4-|
B---7-6-4-3H4H6/7----------------11----10----9----8----7---6----5---4---3---|
G---------------------------------------------------------------------------|
D---------------------------------------------------------------------------|
A---------------------------------------------------------------------------|
E---------------------------------------------------------------------------|

e-----------------------------------------------------------------13--15--13-|
B--------------------------------------12-12-11-11-9-9-7-7-9-11-12--12--12---|
G----------------------------------------------------------------------------|
D------2---2-----2---2----2---2----2--2--------------------------------------|
A---00---0-------------------------------------------------------------------|
E-------------44---4---22---2---00--0----------------------------------------|

e-----15--13--15--13--14--16--14--16--14--16--14--18------16--17--16--17-17-|
B---12--12--12--12--12--12--12--12--12--12--12--12------15--15--15--15------|
G---------------------------------------------------------------------------|
D---------------------------------------------------------------------------|
A---------------------------------------------------------------------------|
E---------------------------------------------------------------------------|

e---17-17-17-17-17-17-17-17-17-17(hold for 4 counts)------------------------|
B---------------------------------------------------------------------------|
G---------------------------------------------------------------------------|
D---------------------------------------------------------------------------|
A---------------------------------------------------------------------------|
E---------------------------------------------------------------------------|
Tap to rate this tab
# A B C D E F G H I J K L M N O P Q R S T U V W X Y Z