Guitaretab - guitar tabs
Song name
# A B C D E F G H I J K L M N O P Q R S T U V W X Y Z

Misc Unsigned Bands - State Of Panic - Looking Back On Things tab

Intro: Measure 1
Guitar 1: Mike (Chorus and Delay Effect)
e--------------|----------|----------|--------------|-----------------|
b--------------|----------|----------|--------------|-----------------|
g---------6----|------6---|------6---|--------9--6--|-----------------|
d------7----7--|---7----7-|---7----9-|----6---------|-----------------|(x4)
a---5----------|-5--------|-9--------|-7------------|-----------------|
d--------------|----------|----------|--------------|-----------------|
measure 9
(Ladiessss Version-Cut Part)
Guitar 2: Nick
e--------------|--------------|---------------|-----------------------|
b--------------|--------------|---------------|-----------------------|
g------2-1-2-1-|------2-1-2-1-|-------4-2-1-2-|-------4/6-4-2-4-(2)~--|
d-4-4-4--------|-4-4-4--------|-4-4-4---------|-4-4-4-----------------|(x2)
a--------------|--------------|---------------|-----------------------|
d--------------|--------------|---------------|-----------------------|

measure 17 - 0:24
Guitar 1
e------------|----------|----------|----------|-----------------------|
a------------|----------|----------|----------|-----------------------|
g------------|----------|----------|----------|-----------------------|
d-7/0--0-0-0-|-0--0-0-0-|-2--4-4-4-|-2--2-2-2-|-----------------------|(x4)
a-7/0--0-0-0-|-0--0-0-0-|-2--4-4-4-|-2--2-2-2-|-----------------------|
d-7/0--0-0-0-|-0--0-0-0-|-2--4-4-4-|-2--2-2-2-|-----------------------|
measure 17
Guitar 2
e-----------|----------|----------|----------------|
a-----------|----------|----------|----------------|
g----15/2~--|--(2)-----|---4--6---|-4-7-6-4h6p4/2~-|
d-----------|----------|----------|----------------|
a-----------|----------|----------|----------------|
d-----------|----------|----------|----------------|
measure 21
Guitar 2
e-----------|----------|----------|--------------------------------|
a-----------|----------|----------|--------------------------------|
g------(2)--|--(2)-----|---4--6---|-6h7p6h7p6-4h6p4h6p4-2h4p2------|
d-----------|----------|----------|--------------------------------|
a-----------|----------|----------|--------------------------------|
d-----------|----------|----------|--------------------------------|
measure 25
Guitar 2
e----------|---------|-------------------|
a----------|---------|-------------------|
g----14t2h4--(x8)----|-16t2h4-18t2h4(x4)-|
d----------|---------|-------------------|
a----------|---------|-------------------|
d----------|---------|-------------------|
continuation (measure 28)
e--------------------------------------------------|
b--------------------------------------------------|
g--16t2h4(x3)19t2h4-18t2h4-16t2h4-18t2h4-----------|
d--------------------------------------------------|
a--------------------------------------------------|
d--------------------------------------------------|

measure 29
Guitar 2
e----------|---------|-------------------|
a----------|---------|-------------------|
g----14t2h4--(x8)----|-16t2h4-18t2h4(x4)-|
d----------|---------|-------------------|
a----------|---------|-------------------|
d----------|---------|-------------------|
continuation (measure 32)
e----------------------------------------|------|---------------|
b----------------------------------------|------|---------------|
g--16t2h4(x3)19t2h4-17t2h4-16t2h4-17t2h4-|14-(14)/13/11---------|
d----------------------------------------|------|---------------|
a----------------------------------------|------|---------------|
d----------------------------------------|------|---------------|

VERSE
measure 35 - 0:54
Guitar 2
e-----------|----------|----------|-------------|
b-----------|----------|----------|-------------|
g-----------|----------|----------|-------------|
d-7--7-7-6-4|2--2-2-4-6|4--4-4-2-0|0-0-0-0-0-0--|
a-7--7-7-6-4|2--2-2-4-6|4--4-4-2-0|0-0-0-0-0-0--|
d-7--7-7-6-4|2--2-2-4-6|4--4-4-2-0|0-0-0-0-0-0--|                  (
                                                                   /
mesure 39                                                         < (x2)
Guitar 2                                                           \
e------------|---------------|------------|-------------------|    )
b------------|---------------|------------|-------------------|
g------------|---------------|------------|-------------------|
d-7--7-7-9-11|14--14-14-11-14|16--16-16---|19-19-19-19-19-19--|
a-7--7-7-9-11|14--14-14-11-14|16--16-16---|19-19-19-19-19-19--|
d-7--7-7-9-11|14--14-14-11-14|16--16-16---|19-19-19-19-19-19--|
[ Tab from: http://www.guitaretab.com/m/misc-unsigned-bands/108519.html ]
measure 39
Guitar 1
e------------|-----------|--12--12--12--12--9--7-|-12--12--12--12--9-7----|
a---10--10---|-12---12---|-----------------------|------------------------|
g-----9---9--|---9----9--|-----------------------|------------------------|
d------7---7-|----7----7-|-----------------------|------------------------|(x2)
a------------|-----------|-----------------------|------------------------|
d------------|-----------|-----------------------|------------------------|

measure 47
Guitar 1
e------------|-----------|-----------------------|----------------------|
a---10--10---|-12---12---|---10---10-------------|---9----9-------------|
g-----9---9--|---9----9--|-----9----9------------|----9-----9-----------|
d------7---7-|----7----7-|------7----7-----------|------7-----7---------|
a------------|-----------|-----------------------|----------------------|
d------------|-----------|-----------------------|----------------------|

measure 51 - 1:19
Guitar 2
e----------|--------|------|-----|---------|---------|--------|-----------|
b----------|--------|------|-----|---------|---------|--------|-----------|
g----------|--------|------|-----|---------|---------|--------|-----------|
d--7---7-7-|-6-4-2-4|0--0-0|-0-2-|--4--4-4-|-4-2-0-2-|-0--0-0-|---2-4-----|
a--7---7-7-|-6-4-2-4|0--0-0|-0-2-|--4--4-4-|-4-2-0-2-|-0--0-0-|---2-4-----|
d--7---7-7-|-6-4-2-4|0--0-0|-0-2-|--4--4-4-|-4-2-0-2-|-0--0-0-|---2-4-----|
  you,  you already know...      so i, wont waste my fuckin' breath

measure 59
Guitar 2
e----------|--------|------|-----|---------|---------|---------|----------|
b----------|--------|------|-----|---------|---------|---------|----------|
g----------|--------|------|-----|---------|---------|---------|----------|
d--7---7-7-|-6-4-2-4|0--0-0|-0-2-|--4--4-4-|-4-2-0-2-|-00000000|2222444---|
a--7---7-7-|-6-4-2-4|0--0-0|-0-2-|--4--4-4-|-4-2-0-2-|-00000000|2222444---|
d--7---7-7-|-6-4-2-4|0--0-0|-0-2-|--4--4-4-|-4-2-0-2-|-00000000|2222444---|
  this town is slowly...       and you you seem to have...

Chorus
measure 67 - 1:35
Guitar 1                                      * (hormonics-first&third time)
e------------|----------|----------|---------(7)|
a------------|----------|----------|---------(7)|
g------------|----------|----------|---------(7)|
d---0--0-0-0-|-0--0-0-0-|-2--4-4-4-|-2--2-2-2---|  (x4)
a---0--0-0-0-|-0--0-0-0-|-2--4-4-4-|-2--2-2-2---|
d---0--0-0-0-|-0--0-0-0-|-2--4-4-4-|-2--2-2-2---|
 I look behind and all i see is burning bridges

measure 71
Guitar 2
e------------|----------|----------|---------------|
b------------|----------|----------|---------------|
g------------|----------|-7-7-7-7--|--9-9-11-11----|
d------------|----------|----------|---------------|
a------------|----------|-5-5-5-5--|--7-7-9---9----|
d------------|----------|----------|---------------|
i look a ahead and all  i see are wasteful wishes

measure 83 - 2:14
Guitar 2
e----------|--------|------|-----|---------|---------|--------|-----------|
b----------|--------|------|-----|---------|---------|--------|-----------|
g----------|--------|------|-----|---------|---------|--------|-----------|
d--7---7-7-|-6-4-2-4|0--0-0|-0-2-|--4--4-4-|-4-2-0-2-|-0--0-0-|---2-4-----|
a--7---7-7-|-6-4-2-4|0--0-0|-0-2-|--4--4-4-|-4-2-0-2-|-0--0-0-|---2-4-----|
d--7---7-7-|-6-4-2-4|0--0-0|-0-2-|--4--4-4-|-4-2-0-2-|-0--0-0-|---2-4-----|
  you,  your not a kid no more   times change to bad i wasted all...

measure 91
Guitar 2
e----------|--------|------|-----|---------|---------|---------|----------|
b----------|--------|------|-----|---------|---------|---------|----------|
g----------|--------|------|-----|---------|---------|---------|----------|
d--7---7-7-|-6-4-2-4|0--0-0|-0-2-|--4--4-4-|-4-2-0-2-|-00000000|2222444---|
a--7---7-7-|-6-4-2-4|0--0-0|-0-2-|--4--4-4-|-4-2-0-2-|-00000000|2222444---|
d--7---7-7-|-6-4-2-4|0--0-0|-0-2-|--4--4-4-|-4-2-0-2-|-00000000|2222444---|
  i just need somthing new ...    i think ill take a chance....

Chorus
measure 99 - 2:40
Guitar 1                                      * (hormonics-first&third time)
e------------|----------|----------|---------(7)|
a------------|----------|----------|---------(7)|
g------------|----------|----------|---------(7)|
d---0--0-0-0-|-0--0-0-0-|-2--4-4-4-|-2--2-2-2---|  (x4)
a---0--0-0-0-|-0--0-0-0-|-2--4-4-4-|-2--2-2-2---|
d---0--0-0-0-|-0--0-0-0-|-2--4-4-4-|-2--2-2-2---|
 I look behind and all i see is burning bridges

measure 103        104      105           106
Guitar 2
e------------|----------|----------|---------------|
b------------|----------|----------|---------------|
g------------|----------|-7-7-7-7--|--9-9-11-11----|
d------------|----------|----------|---------------|
a------------|----------|-5-5-5-5--|--7-7-9---9----|
d------------|----------|----------|---------------|
i look a ahead and all  i see are wasteful wishes

ill finish the rest of the song soon...

key
h = hammer on
p = pull off
t = tapping
* = hormonics
/ = slide
Related for State Of Panic - Looking Back On Things tab