Song name
# A B C D E F G H I J K L M N O P Q R S T U V W X Y Z

Misc Unsigned Bands - Nursery Crimes - Sink Or Scream tab

intro:
|-----------------------------|-----------------------------|
|-----------------------------|-----------------------------|
|-----11----11-----11------11-|-----14-----14-----14-----14-|
|-----------------------------|-----------------------------|
|-000-9--000-9--000-9--000-9--|-000-12-000-12-000-12-000-12-|
|-000----000----000----000----|-000----000----000----000----| 

|-----------------------------|-----------------------------|
|-----------------------------|-----------------------------|
|-----11----11-----11------11-|-----14-----14-----14-----14-|
|-----------------------------|-----------------------------|
|-000-9--000-9--000-9--000-9--|-000-12-000-12-000-12-000-12-|
|-000----000----000----000----|-000----000----000----000----| 

|----------------------------------| 
|----------------------------------| 
|----------------------------------| 
|-----0~----0~-------0~----0~------| 
|-000-0~-00-0~---000-0~-00-0~-0-00-| 
|-000-0~-00-0~---000-0~-00-0~-0-00-| 

|----------------------------------| 
|----------------------------------| 
|----------------------------------| 
|-----0~----0~-------0~----0~------| 
|-000-0~-00-0~---000-0~-00-0~-0-00-| 
|-000-0~-00-0~---000-0~-00-0~-0-00-| 

verse:
|-------------------------------------------------------------------|
|--------------------------------------------------10--------10-----|
|-14-14-14p12p10-12-12-12p10p9 10 9----9--------------10--------10--|
|-----------------------------------12---12-10-8-8-------8-8------8-|
|-------------------------------------------------------------------|
|-------------------------------------------------------------------|

|-------------------------------------------------------------------|
|--------------------------------------------------10--------10-----|
|-14-14-14p12p10-12-12-12p10p9 10 9----9--------------10--------10--|
|-----------------------------------12---12-10-8-8-------8-8------8-|
|-------------------------------------------------------------------|
|-------------------------------------------------------------------|

|-------------------------------------------------------------------|
|-------------------------------------------------------------------|
|-------------------------------------------------------------------|
|8-8-7h8-7-8-7h8--0---0------0------0------0------------------------|
|8-------7--------0---0------0------0------0------------------------|
|8-------7--------0-0-0 0000-0-0000-0-0000-0------------------------|
                  . . . .... . .... . .... .

chorus:
|---------------------------------------------------------------------------|
|------------------------------------------------10-10h12p10--10--10h12p10-8|
|14-14-14p12p10-12-12-12p10p9-10-9----9---------------------10--------------|
|-----------------------------------12--12-10-8-8---------------------------|
|---------------------------------------------------------------------------|
|---------------------------------------------------------------------------|

|------------------------------------------------------------------------|
|------------------------------------------------------------------------|
|------------------------------------------------------------------------|
|-8-7h8-7-8-7h8-8-8h10-8-7-8-7----5-8-7h8-7-8-7h8-8-8-7h8-8h10-8-7-8-7---|
|-------7-------8--------------10-5-------7-------8-------------------10-|
|-------7-------8-----------------5-------7-------8----------------------|



verse:
|-------------------------------------------------------------------|
|--------------------------------------------------10--------10-----|
|-14-14-14p12p10-12-12-12p10p9 10 9----9--------------10--------10--|
|-----------------------------------12---12-10-8-8-------8-8------8-|
|-------------------------------------------------------------------|
|-------------------------------------------------------------------|

|-------------------------------------------------------------------|
|--------------------------------------------------10--------10-----|
|-14-14-14p12p10-12-12-12p10p9 10 9----9--------------10--------10--|
|-----------------------------------12---12-10-8-8-------8-8------8-|
|-------------------------------------------------------------------|
|-------------------------------------------------------------------|

|-------------------------------------------------------------------|
|-------------------------------------------------------------------|
|-------------------------------------------------------------------|
|8-8-7h8-7-8-7h8--0---0------0------0------0------------------------|
|8-------7--------0---0------0------0------0------------------------|
|8-------7--------0-0-0 0000-0-0000-0-0000-0------------------------|
                  . . . .... . .... . .... .

chorus:
|---------------------------------------------------------------------------|
|------------------------------------------------10-10h12p10--10--10h12p10-8|
|14-14-14p12p10-12-12-12p10p9-10-9----9---------------------10--------------|
|-----------------------------------12--12-10-8-8---------------------------|
|---------------------------------------------------------------------------|
|---------------------------------------------------------------------------|

|------------------------------------------------------------------------|
|------------------------------------------------------------------------|
|------------------------------------------------------------------------|
|-8-7h8-7-8-7h8-8-8h10-8-7-8-7----5-8-7h8-7-8-7h8-8-8-7h8-8h10-8-7-8-7---|
|-------7-------8--------------10-5-------7-------8-------------------10-|
|-------7-------8-----------------5-------7-------8----------------------|


bridge:
|-------------------------------------------------------------------|
|-------------------------------------------------------------------|
|-------------------------------------------------------------------|
|---7-5/7---7-5/7-8-0-8-7h8-10-0-10--7-7-7--------------------------|
|-0-5-3/5-0-5-3/5-8-0-8-7h8-10-0-10--7-7-7--------------------------|
|-0-------0-------8-0-8-7h8-10-0-10--7-7-7--------------------------|

|-------------------------------------------------------------------|
|-------------------------------------------------------------------|
|-------------------------------------------------------------------|
|---7-5/7---7-5/7-8-0-8-7h8-10-0-10--7-7-7--------------------------|
|-0-5-3/5-0-5-3/5-8-0-8-7h8-10-0-10--7-7-7--------------------------|
|-0-------0-------8-0-8-7h8-10-0-10--7-7-7--------------------------|

then chorus again...








Tap to rate this tab
# A B C D E F G H I J K L M N O P Q R S T U V W X Y Z