Song name
# A B C D E F G H I J K L M N O P Q R S T U V W X Y Z

Misc Unsigned Bands - Shesaidyeah - Joker Days tab

-------------------------------------------------------------------------------
			     JOKER DAYS - SheSaidYeah
-------------------------------------------------------------------------------

Tabbed by: the chief, anna [shesaidyeah, bass]
Austria Rules


Tuning:EADGBe


VERSE:
     D         D         A        G
e|--2-2-3-2---2-2-3-2-------3-2---3------|
B|--3-3-----3-3-3-----3-2-2-----3-3------|
G|--2-2-------2-2-------2-2-------0------|    x4
D|--0-0-------0-0-------2-2-------0------|
A|----------------------0-0-------2------|
E|--------------------------------3------|

CHORUS:
    D      Em     Gm     Em     Gm     Em
e|--2------------------------------------------|
B|--3------------------------------------------|
G|--2------0------3------0------3------0-------|
D|--0--x8--2--x8--5--x8--2--x8--5--x8--2--x8---|
A|---------2------5------2------5------2-------|
E|---------0------3------0------3------0-------|


CHORUS IN CHORDS:

        D                  Em
There's one thing worth to tell you
        Gm                Em
There's one thing so damn true
    Gm         Em (stop)               D   D   A   G
You only get a joke when the joke's on you





ENJOY  >.<

good luck

anna




===============================================================================
Tap to rate this tab
# A B C D E F G H I J K L M N O P Q R S T U V W X Y Z