Song name
# A B C D E F G H I J K L M N O P Q R S T U V W X Y Z

Misc Unsigned Bands - Never See Tomorrow - 1000 Miles tab

----------------------------------------------------------------------------
			 1000 Miles - Never See Tomorrow
----------------------------------------------------------------------------

Tabbed by:ParkwayDrive121
Email:kerza_54@hotmail.com

Tuning: B F# B E G# C#

intro(1x)
|----------------------------------------------|
|----------------------------------------------|
|----------------------------------------------|
|-12p0-12p0-11p0-11p0-7p0-7p0-7p0--5-4p0-------|
|----------------------------------------------|
|----------------------------------------------|
(2x)
|----------------------------------------------|
|----------------------------------------------|
|----------------------------------------------|
|-12p0-12p0-11p0-11p0-7p0-7p0-7p0--4h5-4p0-----|
|----------------------------------------------|
|----------------------------------------------|
|(2nd time)
|----------------------------------------------|
|----------------------------------------------|
|----------------------------------------------|
|-0--------------------------------------------|
|-0--------------------------------------------|
|-0--------------------------------------------|

|----------------------------|
|----------------------------|
|----------------------------|
|--4h5---4h5---7--2----------|
|------5-----5---------------|
|----------------------------|
|
|----------------------------|
|----------------------------|
|----------------------------|
|-4-----0-----7--------------|
|-4-----0-----7--------------|
|-4-----0-----7--------------|


verse
|-----------------------------------------|
|-----------------------------------------|
|-----------------------------------------|
|-----------------------------------------|
|-0-0-0-0---0-0-0-0---0-0-0-0---0-0-0-0---|
|-0-0-0-0---0-0-0-0---0-0-0-0---0-0-0-0---|


|----------------------------------------------|
|----------------------------------------------|
|----------------------------------------------|
|-12p0-12p0-11p0-11p0-7p0-7p0-7p0--4h5-4p0-----|
|----------------------------------------------|
|----------------------------------------------|
|
|----------------------------------------------|
|----------------------------------------------|
|----------6-----------------------------------|
|-0--------6----------7-----------5---4--5-----|
|-0--------4----------7-----------5---4--5-----|
|-0-------------------7-----------5---4--5-----|



pre chorus
|------------------------------------------------------|
|------------------------------------------------------|
|--------------------------------------------------7-6-|
|------------------------------------------------------|
|-0-2-0-5-4-0-2--0-2-0-5-4-0-2--0-2-0-5-4-0-2------5-4-|
|-0-2-0-5-4-0-2--0-2-0-5-4-0-2--0-2-0-5-4-0-2----------|



chorus
|-----------------------------------------------------------------|
|----------------------------------------------------------10-----|
|--6---7------------6---7-----------6---7-----------6---7---------|
|----------7----------------7---------------7---------------------|
|-----------------------------------------------------------------|
|-----------------------------------------------------------------|
|
|-----------------------------------------------------------------|
|-----------------------------------------------------------------|
|-----------------------------------------------------------------|
|-----------------------------------------------------------------|
|-5-5-5-5-5-5-5-5-7-7-7-7-7-7-7-7-4-4-4-4-4-4-4-4-5-5-5-5-5-5-5-5-|
|-5-5-5-5-5-5-5-5-7-7-7-7-7-7-7-7-4-4-4-4-4-4-4-4-5-5-5-5-5-5-5-5-|

|--------------------------------------------------|
|-----------------------------------------------10-|
|-6---7--------6---7-------6---7--------6---7------|
|---------7------------7------------7--------------|
|--------------------------------------------------|
|--------------------------------------------------|
|
|-----------------------------------------------------------|
|-----------------------------------------------------------|
|-----------------------------------------------------------|
|-5-------7-------7-------4-------5-------5--------5--9--7--|
|-5-5-5-5-7-7-7-7-7-7-7-7-4-4-4-4-5-5-5-5-5-5-5-5--5--9--7--|
|-5-5-5-5-7-7-7-7-7-7-7-7-4-4-4-4-5-5-5-5-5-5-5-5--5--9--7--|



|----------------------------------------------|
|----------------------------------------------|
|----------------------------------------------|
|-12p0-12p0-11p0-11p0-7p0-7p0-7p0--4h5-4p0-----|
|----------------------------------------------|
|----------------------------------------------|
|
|----------------------------------------------|
|----------------------------------------------|
|----------6-----------------------------------|
|-0--------6----------7-----------5---4--5-----|
|-0--------4----------7-----------5---4--5-----|
|-0-------------------7-----------5---4--5-----|

|----------------------------|
|----------------------------|
|----------------------------|
|--4h5---4h5---7--2----------|
|------5-----5---------------|
|----------------------------|
|
|----------------------------|
|----------------------------|
|----------------------------|
|-4-----0-----7--------------|
|-4-----0-----7--------------|
|-4-----0-----7--------------|




verse
|------------------------------------------|
|---------7---------8---------10--------12-|
|------------------------------------------|
|---------4---------5---------7---------9--|
|-0-0-0-0---0-0-0-0---0-0-0-0---0-0-0-0----|
|-0-0-0-0---0-0-0-0---0-0-0-0---0-0-0-0----|

|----------------------------------------------|
|----------------------------------------------|
|----------------------------------------------|
|-12p0-12p0-11p0-11p0-7p0-7p0-7p0--4h5-4p0-----|
|----------------------------------------------|
|----------------------------------------------|
|
|----------------------------------------------|
|----------------------------------------------|
|----------6-----------------------------------|
|-0--------6----------7----------5----4--5-----|
|-0--------4----------7----------5----4--5-----|
|-0-------------------7----------5----4--5-----|



pre chorus
|------------------------------------------------------|
|------------------------------------------------------|
|--------------------------------------------------7-6-|
|------------------------------------------------------|
|-0-2-0-5-4-0-2--0-2-0-5-4-0-2--0-2-0-5-4-0-2------5-4-|
|-0-2-0-5-4-0-2--0-2-0-5-4-0-2--0-2-0-5-4-0-2----------|



chorus
|-----------------------------------------------------------------|
|----------------------------------------------------------10-----|
|--6---7------------6---7-----------6---7-----------6---7---------|
|----------7----------------7---------------7---------------------|
|-----------------------------------------------------------------|
|-----------------------------------------------------------------|
|
|-----------------------------------------------------------------|
|-----------------------------------------------------------------|
|-----------------------------------------------------------------|
|-----------------------------------------------------------------|
|-5-5-5-5-5-5-5-5-7-7-7-7-7-7-7-7-4-4-4-4-4-4-4-4-5-5-5-5-5-5-5-5-|
|-5-5-5-5-5-5-5-5-7-7-7-7-7-7-7-7-4-4-4-4-4-4-4-4-5-5-5-5-5-5-5-5-|

|--------------------------------------------------|
|-----------------------------------------------10-|
|-6---7--------6---7-------6---7--------6---7------|
|---------7------------7------------7--------------|
|--------------------------------------------------|
|--------------------------------------------------|
|
|-----------------------------------------------------------|
|-----------------------------------------------------------|
|-----------------------------------------------------------|
|-5-------7-------7-------4-------5-------5--------5--9--7--|
|-5-5-5-5-7-7-7-7-7-7-7-7-4-4-4-4-5-5-5-5-5-5-5-5--5--9--7--|
|-5-5-5-5-7-7-7-7-7-7-7-7-4-4-4-4-5-5-5-5-5-5-5-5--5--9--7--|



breakdown
|----------------------------------------|
|----------------------------------------|
|----------------------------------------|
|----------------------------------------|
|-0--0---0-0-0---0-0-0--0-0-0-0----------|
|-0--0---0-0-0---0-0-0--0-0-0-0----------|



"and i need you"
|----------------------------------|
|--5---------7---------8--------10-|
|----------------------------------|
|--2---------4---------5--------7--|
|----------------------------------|
|----------------------------------|



chorus
|-----------------------------------------------------------------|
|----------------------------------------------------------10-----|
|--6---7------------6---7-----------6---7-----------6---7---------|
|----------7----------------7---------------7---------------------|
|-----------------------------------------------------------------|
|-----------------------------------------------------------------|
|
|-----------------------------------------------------------------|
|-----------------------------------------------------------------|
|-----------------------------------------------------------------|
|-----------------------------------------------------------------|
|-----------------7-7-7-7-7-7-7-7-4-4-4-4-4-4-4-4-5-5-5-5-5-5-5-5-|
|-----------------7-7-7-7-7-7-7-7-4-4-4-4-4-4-4-4-5-5-5-5-5-5-5-5-|

|--------------------------------------------------|
|-----------------------------------------------10-|
|-6---7--------6---7-------6---7--------6---7------|
|---------7------------7------------7--------------|
|--------------------------------------------------|
|--------------------------------------------------|
|
|-----------------------------------------------------------|
|-----------------------------------------------------------|
|-----------------------------------------------------------|
|-5-------7-------7-------4-------5-------5--------5--9--7--|
|-5-5-5-5-7-7-7-7-7-7-7-7-4-4-4-4-5-5-5-5-5-5-5-5--5--9--7--|
|-5-5-5-5-7-7-7-7-7-7-7-7-4-4-4-4-5-5-5-5-5-5-5-5--5--9--7--|



chorus continuation
|--------------------------------------------------|
|-----------------------------------------------10-|
|-6---7--------6---7-------6---7--------6---7------|
|---------7------------7------------7--------------|
|--------------------------------------------------|
|--------------------------------------------------|
|
|--------------------------------------------------|----------|
|--------------------------------------------------|----------|
|--------------------------------------------------|----------|
|-5-------7-------7-------4-------5-------5--------|-5--9--7--|
|-5-5-5-5-7-7-7-7-7-7-7-7-4-4-4-4-5-5-5-5-5-5-5-5--|-5--9--7--|
|-5-5-5-5-7-7-7-7-7-7-7-7-4-4-4-4-5-5-5-5-5-5-5-5--|-5--9--7--|


outro
|----------------------------------------------|
|----------------------------------------------|
|----------------------------------------------|
|-12p0-12p0-11p0-11p0-7p0-7p0-7p0--4h5-4p0-----|
|----------------------------------------------|
|----------------------------------------------|
|
|----------------------------------------------|
|----------------------------------------------|
|----------6-----------------------------------|
|-0--------6----------7-----------5---4--5-----|
|-0--------4----------7-----------5---4--5-----|
|-0-------------------7-----------5---4--5-----|

|----------------------------|
|----------------------------|
|----------------------------|
|--4h5---4h5---7--2------0---|
|------5-----5-----------0---|
|------------------------0---|
|
|----------------------------|
|----------------------------|
|----------------------------|
|-4-----0-----7----------0---|
|-4-----0-----7----------0---|
|-4-----0-----7----------0---|
Tap to rate this tab
# A B C D E F G H I J K L M N O P Q R S T U V W X Y Z