Song name
# A B C D E F G H I J K L M N O P Q R S T U V W X Y Z

Misc Unsigned Bands - Bulletproof - Suckerpunched tab

Suckerpunched
By: Bulletproof
Tuning: standard

Intro

e----------|-----------|-----------|
b----------|-----------|-----------|
g----------|-4-2-----2-|-4-2-----2-|2x
d-------2--|-4-2-----2-|-4-2-----2-|
a-------2--|-2-0-3b4-0-|-2-0-3b4-0-|
E-3~-2~-0--|-----------|-----------|

end on second time with

|---|
|-2-|
|-2-|
|-2-|
|-0-|
|---|

Verse

e-------------|
b-------------|
g-------------|8x
d-------2~~---|
a-2h3h4-----4-|
E-------------|

Pre Chorus

e-------|-------|-------|--------------|
b-------|-------|-------|-7---8-7-7-8\-|
g---4---|---2---|-------|-7---7-7-7-7\-|
d---4---|---2---|-2-2---|-7---9-7-7-9\-|
a-0-2---|-0-0---|-2-2---|--------------|
E-------|-------|-0-0---|--------------|

|-------|-------|---------------------------------|
|-------|-------|---------------------------------|
|---4---|---2---|---------------------------------|
|---4---|---2---|-2-2-2-2-2-2-2-2-2-2-2-2-2-2-2-2-|
|-0-2---|-0-0---|-2-2-2-2-2-2-2-2-2-2-2-2-2-2-2-2-|
|-------|-------|-0-0-0-0-0-0-0-0-0-0-0-0-0-0-0-0-|

Chorus

Lead

e------------------------|
b-3-2-------10b12=r10----|
g-2-2-----------------11~|
d-4-2--------------------|
a-0-0--------------------|
E-----3b4p0--------------|\
                        
Rhythm                    4x

e--------------------|    /
b-3-2----------------|
g-2-2-------4--4-----|
d-4-2-------4--4-2---|
a-0-0-------2--0-2---|
E-----3b4p0------0---|

on the 4th time end with 

|---|
|---|
|-2-|
|-2-|
|-0-|
|---|

Verse 2

e------------|--|-------------|
b------------|--|-------------|
g------------|4x|-7--9-9-7-9\-|
d------2~~---|--|-7--9-9-7-9\-|
a----------4-|--|-5--7-7-5-7\-|
E-2h=4-------|--|-------------|

Repeat verse 2 2x

Chorus

Lead

e------------------------|
b-3-2-------10b12=r10----|
g-2-2-----------------11~|
d-4-2--------------------|
a-0-0--------------------|
E-----3b4p0--------------|\
                        
Rhythm                    8x

e--------------------|    /
b-3-2----------------|
g-2-2-------4--4-----|
d-4-2-------4--4-2---|
a-0-0-------2--0-2---|
E-----3b4p0------0---|

on the 8th time end with bridge

Bridge

e------------------------------------|
b------------------------------------|
g-2-2-2-2-2-2-2-2-2-2-2-2-2-2-2-2--2-|
d-2-2-2-2-2-2-2-2-2-2-2-2-2-2-2-2--2-|
a-0-0-0-0-0-0-0-0-0-0-0-0-0-0-0-0--0-|
E------------------------------------|

Solo

e-------------------7----------------------------------------------
b-8b9----------8b10---10-7----------------------13b14--------------
g-----9-7---7~-------------9~-xx---------5b6----------14-12-14-14~-
d---------9-------------------xx-5-5-5-----------------------------
a-----------------------------xx-------7---------------------------
E------------------------------------------------------------------

----------15-------------------------------------------------------
-12-15b17====r15=pb17------------------------------------/17-20b22-
-----------------------7p5--------------xx-------5b6-7~------------
---------------------------7-5-7--------xx-5-5---------------------
---------------------------------/12\---xx-----7-------------------
---------------------------------/12\------------------------------

------------------------------|
20b22-20p17-20b22~------------|
------------------------------|
-------------------x<~~~~~~~~-|
-------------------x<~~~~~~~~-|
------------------------------|

oUTRO(CHORUS 2)

Lead

e---------------------------|
b-8b9---------10b12pr10-----|
g-----7~-9p7------------11~-|4x
d---------------------------|
a---------------------------|
E---------------------------|

Lead note: make the last vibrato longer on 4th time

Rhythm

e--------------------|    
b-3-2----------------|
g-2-2-------4--4-----|
d-4-2-------4--4-2---|
a-0-0-------2--0-2---|
E-----3b4p0------0---|

Both end with

e---|
b---|
g-2-|
d-2-|
a-0-|
E---|





Tap to rate this tab
# A B C D E F G H I J K L M N O P Q R S T U V W X Y Z