Song name
# A B C D E F G H I J K L M N O P Q R S T U V W X Y Z

Misc Unsigned Bands - Wildstreak - The Hard Way tab

The Hard Way
By: Wildstreak
Album: Rocker's Arsenal

INTRO

e------------------|-------------------|------------------|-----------------|
b------------------|-------------------|------------------|-----------------|
g------------------|-0-----------------|------------------|-2---------------|
d-----------2------|-0-2--9-9-9-\------|-----------2------|-2---------------|
a-------2-4---3~~~-|-x-2--9-9-9-\------|-------2-4---3~~~-|-0---------------|
E-0-3-4------------|-3-0--7-7-7-\------|-0-3-4------------|-----------------|

|------------------|
|------------------|
|-------(2)--------|rest 8x
|-------(2)--------|
|-------(0)--------|
|------------------|

VERSE

e------------------|-------------------|
b------------------|------3~~-2~-------|
g-------x-x--------|------4~~-2~-------|7x
d---7-7-x-x-7\-----|-2h=4--------9p7-9\|
a---7-7-x-x-7\-----|-------------------|
E-5-5-5-----5\-----|-------------------|

Pre - chorus

e------------------|-------------------|------------------|
b------------------|-------------------|------------------|
g-5-5-5-5-5-5-5-5--|7-7-7-7-7-7-7-7-7--|--------(7)-------|
d-5-5-5-5-5-5-5-5--|7-7-7-7-7-7-7-7-7--|--------(7)-------|
a-3-3-3-3-3-3-3-3-5|5-5-5-5-5-5-5-5-5--|--------(5)-------|
E------------------|-------------------|------------------|
                                       <--------3x-------->

Chorus

e--------------|------------------|--------------|------------------|
b--------------|------------------|--------------|-8b9--------------|
g----7b8-------|---------8-5---5~-|----7b8-------|-----9p7---7~~~~\-|2x
d-/9-----9~~~\-|-----5h7-----7----|-/9-----9~~~\-|---------9--------|
a--------------|-5h7--------------|--------------|------------------|
E--------------|------------------|--------------|------------------|

---------------|--------------|
---------------|--------------|
-----7b8-------|-5-5-5-----7*-|hold d power chord for 12 measures
--/9-----9~~~\-|-5-5-5---5-7*-|
---------------|-3-3-3-3---5*-|
---------------|--------------|

VERSE

e------------------|-------------------|
b------------------|------3~~-2~-------|
g-------x-x--------|------4~~-2~-------|3x
d---7-7-x-x-7\-----|-2h=4--------9p7-9\|
a---7-7-x-x-7\-----|-------------------|
E-5-5-5-----5\-----|-------------------|

Pre - chorus

e------------------|-------------------|------------------|
b------------------|-------------------|------------------|
g-5-5-5-5-5-5-5-5--|7-7-7-7-7-7-7-7-7--|--------(7)-------|
d-5-5-5-5-5-5-5-5--|7-7-7-7-7-7-7-7-7--|--------(7)-------|
a-3-3-3-3-3-3-3-3-5|5-5-5-5-5-5-5-5-5--|--------(5)-------|
E------------------|-------------------|------------------|
                                       <--------6x-------->

Chorus

e--------------|------------------|--------------|------------------|
b--------------|------------------|--------------|-8b9--------------|
g----7b8-------|---------8-5---5~-|----7b8-------|-----9p7---7~~~~\-|2x
d-/9-----9~~~\-|-----5h7-----7----|-/9-----9~~~\-|---------9--------|
a--------------|-5h7--------------|--------------|------------------|
E--------------|------------------|--------------|------------------|

---------------|--------------|
---------------|--------------|
-----7b8-------|-5-5-5--------|hold d power chord for 4 measures
--/9-----9~~~\-|-5-5-5---5-7*-|
---------------|-3-3-3-3---7*-|
---------------|-----------5*-|

Bridge

e---------------------------3-3-2-3-|
b---------------------------3-3-3-3-|
g-------2-------2-------2---0-0-2-0-|4x
d-------2-------2-------2---0-0-0-0-|
a-------0-------0-------0---x-x-----|
E-3b3.5---3b3.5---3b3.5---2-3-3-----|

Solo

e---------------------------------------------------7-------------
b---------------------------------------------8b10~---10-7--------
g---------------7b8---------x-x-7p5------------------------9~-----
d-------5---5-------5---5`~-x-x-----7----7~~~---------------------
a-/5=h7---7-----------7-----x-x--------5--------------------------
E-------------------------------------------------------------/ \-

-----------------------------------------------------------------------
---------------------15b17~-13b13.5=pr13---------------\20-------------
-x-x-5-5-5-------------------------------14~------------19b21-17----17-
-x-x-------7p5-7=/9~-------------------------14-12-14~-----------19----
-----------------------------------------------------------------------
-----------------------------------------------------------------------

-------------------------12-15b17-15-12-15b17~~~~-------------|
-------------3b4---3b4~---------------------------------------|
=/19~~~~~----3b5---3b5~---------------------------------------|
-----------------5--------------------------------------------|
--------------------------------------------------x<~~~~~~~~~-|
--------------------------------------------------x<~~~~~~~~~-|
---------/ \--------------------------------------------------|

Outro

e------------------|-------------------|------------------|-----------------
b------------------|-------------------|------------------|-15b17-pb17-pr15-
g------------------|-0-----------------|------------------|-----------------
d-----------2------|-0-2--9-9-9-\------|-----------2------|-----------------
a-------2-4---3~~~-|-x-2--9-9-9-\------|-------2-4---3~~~-|-----------------
E-0-3-4------------|-3-0--7-7-7-\------|-0-3-4------------|-----------------

---------|
15b17~~~-|
---------|
---------|
---------|
---------|

For rest of outro

rhythm 

e------------------|-------------------|------------------|-----------------|
b------------------|-------------------|------------------|-----------------|
g------------------|-0-----------------|------------------|-2-2-2---------2-|
d-----------2------|-0-2--9-9-9-\------|-----------2------|-2-2-2---------2-|
a-------2-4---3~~~-|-x-2--9-9-9-\------|-------2-4---3~~~-|-0-0-0-3b3.5p0-0-|
E-0-3-4------------|-3-0--7-7-7-\------|-0-3-4------------|-----------------|

lead

e-------22-------22|---------22b24-pr22|-19---------------|------------------
b-22b24----22b24---|22b24~~~-----------|----22-19-20b22-20|17-17h19p17-------
g------------------|-------------------|------------------|------------19-17-
d------------------|-------------------|------------------|------------------
a------------------|-------------------|------------------|------------------
E------------------|-------------------|------------------|------------------

-------------------|-------------------|------------------|------------------
-------------------|-------------------|------------------|------------------
19~~~--------------|-------------------|------------------|------------------
------5-7-7-5-7`~~~|~~~~~~~~~~~~~~~~~~~|~~~~~~~~~~~~~~~~~~|~~~~~~~~~~~~~~~~~~
-------------------|-------------------|------------------|------------------
-------------------|-------------------|------------------|------------------

hold vibrato for four more measures then end with

-------------------|
-------------------|
-2-----------------|hold for four measures and then sturm again (short note)
-2-----------------|
-0-----------------|
-------------------|
Tap to rate this tab
# A B C D E F G H I J K L M N O P Q R S T U V W X Y Z