Song name
# A B C D E F G H I J K L M N O P Q R S T U V W X Y Z

Misc Unsigned Bands - Manibela - 24oras tab

Title: 24 oras
Artist: Manibela
Album: Happy Stambay

For any comments and Suggestion:

Text Me: 09198408399
Friendster: boybassista@yahoo.com

Intro: Drum First:

Bente kwarto oras…Kitang Hinahanap….

Guitar 1:(0:13)

Fill-in:
e------------------------|
b------------------------|
g-9999-888--6666--4444---|
D------------------------|
A------------------------|
E------------------------|

Guitar 2:
e-----------------------------------------------------|
b-----------------------------------------------------|
g-9999--77777--55555-----------------------55555------|
D-9999--77777--55555--55555---33333--5555--55555------|
A-7777--55555--33333--55555---33333--5555--33333------|
E---------------------33333---11111--3333-------------|

Guitar 1:

Fill-in 2:
e------------------------|
b------------------------|
g-/9-7-5-2-4-5-----------|
D------------------------|
A------------------------|
E------------------------|

Chorus:

Guitar 2:
Bente kwarto oras…Kitang Hinahanap….
e-----------------------------------------------------|
b-----------------------------------------------------|
g-9999--77777--55555-----------------------55555------|
D-9999--77777--55555--55555---33333--5555--55555------|
A-7777--55555--33333--55555---33333--5555--33333------|
E---------------------33333---11111--3333-------------|

Intro:

Guitar 2:
e-----------------------------------------------------|
b-----------------------------------------------------|
g-9999--77777--55555-----------------------55555------|
D-9999--77777--55555--55555---33333--5555--55555------|
A-7777--55555--33333--55555---33333--5555--33333------|
E---------------------33333---11111--3333-------------|

Guitar 1:

Fill-in 2:
e------------------------|
b------------------------|
g-/9-7-5-2-4-5-----------|
D------------------------|
A------------------------|
E------------------------|

Verse:
Kala ko…
e--------------------------|
b--------------------------|
g-55-44--------------------|
D-55-44--77--99------------|
A-33-22--77--99------------|
E--------55--77------------|
 
Sabi mo…
e--------------------------|
b--------------------------|
g-55-44--------------------|
D-55-44--77--99------------|
A-33-22--77--99------------|
E--------55--77------------|

Tigilan mo na…
e--------------------------|
b--------------------------|
g-55-44--------------------|
D-55-44--77--99------------|
A-33-22--77--99------------|
E--------55--77------------|
   
Di ka na…
e--------------------------|
b--------------------------|
g-55-44--------------------|
D-55-44--77--99------------|
A-33-22--77--99------------|
E--------55--77------------|


Aabutin ka… pa….

Guitar 1:
Fill-in:
e------------------------|
b------------------------|
g-9999-888--6666--4444---|
D------------------------|
A------------------------|
E------------------------|

Guitar 2:

e-----------------------------------------------------|
b-----------------------------------------------------|
g-9999--77777--55555-----------------------55555------|
D-9999--77777--55555--55555---33333--5555--55555------|
A-7777--55555--33333--55555---33333--5555--33333------|
E---------------------33333---11111--3333-------------|

Chorus:

Bente kwarto oras…
e-----------------------------------------------------|
b-----------------------------------------------------|
g-9999--77777--55555-----------------------55555------|
D-9999--77777--55555--55555---33333--5555--55555------|
A-7777--55555--33333--55555---33333--5555--33333------|
E---------------------33333---11111--3333-------------|

Bakiti di ka Makita…
e-----------------------------------------------------|
b-----------------------------------------------------|
g-9999--77777--55555-----------------------55555------|
D-9999--77777--55555--55555---33333--5555--55555------|
A-7777--55555--33333--55555---33333--5555--33333------|
E---------------------33333---11111--3333-------------|


Verse:
Tanda mo ba…
e--------------------------|
b--------------------------|
g-55-44--------------------|
D-55-44--77--99------------|
A-33-22--77--99------------|
E--------55--77------------|

Naglalakad…
e--------------------------|
b--------------------------|
g-55-44--------------------|
D-55-44--77--99------------|
A-33-22--77--99------------|
E--------55--77------------|

Paniwala mo ako..
e--------------------------|
b--------------------------|
g-55-44--------------------|
D-55-44--77--99------------|
A-33-22--77--99------------|
E--------55--77------------|

Aamining… 
e--------------------------|
b--------------------------|
g-55-44--------------------|
D-55-44--77--99------------|
A-33-22--77--99------------|
E--------55--77------------|

Bakit nawawala…..
Guitar 1:
Fill-in:
e------------------------|
b------------------------|
g-9999-888--6666--4444---|
D------------------------|
A------------------------|
E------------------------|

Guitar 2:
e-----------------------------------------------------|
b-----------------------------------------------------|
g-9999--77777--55555-----------------------55555------|
D-9999--77777--55555--55555---33333--5555--55555------|
A-7777--55555--33333--55555---33333--5555--33333------|
E---------------------33333---11111--3333-------------|

Chorus:

Bente kwarto oras…
e-----------------------------------------------------|
b-----------------------------------------------------|
g-9999--77777--55555-----------------------55555------|
D-9999--77777--55555--55555---33333--5555--55555------|
A-7777--55555--33333--55555---33333--5555--33333------|
E---------------------33333---11111--3333-------------|

Bakiti di ka Makita…
e-----------------------------------------------------|
b-----------------------------------------------------|
g-9999--77777--55555-----------------------55555------|
D-9999--77777--55555--55555---33333--5555--55555------|
A-7777--55555--33333--55555---33333--5555--33333------|
E---------------------33333---11111--3333-------------|



Tap to rate this tab
# A B C D E F G H I J K L M N O P Q R S T U V W X Y Z