Guitaretab - guitar tabs
Song name
# A B C D E F G H I J K L M N O P Q R S T U V W X Y Z

Misc Unsigned Bands - H3alth - Shot Of Fire tab

Band: H3alth
Song: Shot of Fire

Tuning:#      

  Gtr1  intro
e|--------------------------------------|4x
B|--------------------------------------|
G|--------------------------------------|
D|--------------------------------------|
A|---9-12-11--------9-12-11-13----------|
E|-9---------11---9---------------------|

gtr2
e|------------------------------------- |
B|------------------------------------- |
G|------------------------------------- |
D|------------------------------------- |
A|------------------9///--------------- |
E|--9~~~------------------------------- |

A1
Gtr1
 | this part 2x    |
e|-----------------|---------------------------------------------------------|
B|-----------------|---------------------------------------------------------|
G|-----------------|---------------------------------------------------------|
D|-----------------|---------------------------------------------------------|
A|-----------------|---------------------------------------------------------|
E|5---6p5-33h4p3--|-5---6p5-3-3h4p3---11///---------------------------------|

Gtr2
e|------------------------------------------------------------|
B|---5xxx65-3--4----------------------------------------------|
G|---5xxx65-3--4----------------------------------------------|
D|---5xxx65-3--4----------------------------------------------|
A|------------------------------------------------------------|
E|------------------------------------------------------------|
[ Tab from: http://www.guitaretab.com/m/misc-unsigned-bands/108623.html ]
Post to the chorus
e|9~-------------------------------------------------------------------------|
B|---------------------------------------------------------------------------|
G|---------------------------------------------------------------------------|
D|---------------------------------------------------------------------------|
A|---------------------------------------------------------------------------|
E|---------------------------------------------------------------------------|

Solo gtr1 
e|---------------------------------------------------------------------------|
B|---------------------------------------------------------------------------|
G|---------------------------------------------------------------------------|
D|---------------------------------------------------------------------------|2x
A|101010-1010-101010-12-101010-1010-101010-12-13-----------------------------|
E|101010-1010-101010-12-101010-1010-101010-12-13-----------------------------|

gtr2
e|---------------------------------------------------------------------------|
B|---------------------------------------------------------------------------|
G|---------------------------------------------------------------------------|
D|---------------------------------------------------------------------------|
A|---------------------------------------------------------------------------|
E|407-408-407-408-407-409-408-409-407-408-409-13-----------------------------|





Chorus gt1

e|---------------------------------------------------------------------------|
B|999-7-5999-11-12999-7-5-999-11-12999-7-5-999-11-12---11-11-11-11-1212---|
G|---------------------------------------------------------------------------|
D|---------------------------------------------------------------------------|
A|---------------------------------------------------------------------------|
E|---------------------------------------------------------------------------|

gtr2 3x
e|-------------------------------------------|
B|9---7-5--8---0-4---------------------------|
G|9---7-5--8---0-4---------------------------|
D|9---7-5--8---0-4---------------------------|
A|-------------------------------------------|
E|-------------------------------------------|


A2 is same as A1 
Outro same as intro

intro,A1,chorus,solo,A2,chorus,chorus,solo,chorus,outro




| /  slide up
| \  slide down
| h  hammer-on
| p  pull-off
| ~  vibrato
| +  harmonic
| x  Mute note
Related for H3alth - Shot Of Fire tab