Song name
# A B C D E F G H I J K L M N O P Q R S T U V W X Y Z

Misc Unsigned Bands - The Lawnmowers - Das Laawnmuwer tab

Help us improve GuitareTab! Take a short survey!
	Guitar I(lead):Austin
	Guitar II(rythym):Evan
	Standard Tuning
	Defenitions              Chords
	/:slide up              G5: 355xxx 
	\:slide down            F5: 133xxx
	^:bend
	h:hammer-on
	p:pull-off
	PM:palm mute
	*:let ring

	Guitar I
	Intro 
	Play X2                                                     
	|--------------------------------------------------|
	|--------------------------------------------------| 
	|--------------------------------------------------|
	|------------------------------5*------------------|
	|------------------5*------------------------------|
	|--------3*----------------------------------------|

	|--------------------------------------------------|
	|--------------------------------------------------| 
	|--------------------------------------------------|
	|------------------------------3*------------------|
	|------------------3*------------------------------|
	|--------1*----------------------------------------|

	Main
	Play X4
	|--------------------------------------------------|
	|--------------------------------------------------| 
	|--------------------------------------------------|
	|---5-5-5-5-5-5-5-5--3-3-3-3-3-3-3-3---------------|
	|---5-5-5-5-5-5-5-5--3-3-3-3-3-3-3-3---------------|
	|---3-3-3-3-3-3-3-3--1-1-1-1-1-1-1-1---------------|
	Solo
	|--------------------------------------------------|
	|--------------------------------------------------|
	|------------------------------------------3--5-6--| 
	|-----------------3-5-3-5-3-5--------3--5----------|
	|--------3--5-5----------------5--3----------------|
	|-3--6---------------------------------------------|

	|--------------------------------------------------|
	|--3-3-3-3-3-3*--6--6^--6--3-----------------------|
	|-----------------------------6-5-3----------------| 
	|-----------------------------------5-3------------|
	|---------------------------------------5-3--------|
	|-------------------------------------------6-3*---|
	
	Play X2
	|--------------------------------------------------|
	|--------------------------------------------------| 
	|--------------------------------------------------|
	|---5-5-5-5-5-5-5-5--3-3-3-3-3-3-3-3---------------|
	|---5-5-5-5-5-5-5-5--3-3-3-3-3-3-3-3---------------|
	|---3-3-3-3-3-3-3-3--1-1-1-1-1-1-1-1---------------|







	Guitar II
	Intro
	Play X2
	|--------------------------------------------------|
	|--------------------------------------------------| 
	|--------------------------------------------------|
	|------------------------------5*------------------|
	|------------------5*------------------------------|
	|--------3*----------------------------------------|

	|--------------------------------------------------|
	|--------------------------------------------------| 
	|--------------------------------------------------|
	|------------------------------3*------------------|
	|------------------3*------------------------------|
	|--------1*----------------------------------------|

	Main
	Play X4
	|--------------------------------------------------|
	|--------------------------------------------------| 
	|--------------------------------------------------|
	|------------------------------5*------------------|
	|------------------5*------------------------------|
	|--------3*----------------------------------------|

	|--------------------------------------------------|
	|--------------------------------------------------| 
	|--------------------------------------------------|
	|------------------------------3*------------------|
	|------------------3*------------------------------|
	|--------1*----------------------------------------|

	During Solo 
	Play X4

	|--------------------------------------------------|
	|--------------------------------------------------| 
	|--------------------------------------------------|
	|---5-5-5-5-5-5-5-5--3-3-3-3-3-3-3-3---------------|
	|---5-5-5-5-5-5-5-5--3-3-3-3-3-3-3-3---------------|
	|---3-3-3-3-3-3-3-3--1-1-1-1-1-1-1-1---------------|

	Outro

	|--------------------------------------------------|
	|--------------------------------------------------| 
	|--------------------------------------------------|
	|------------------------------5*------------------|
	|------------------5*------------------------------|
	|--------3*----------------------------------------|

	|--------------------------------------------------|
	|--------------------------------------------------| 
	|--------------------------------------------------|
	|------------------------------3*------------5*----|
	|------------------3*------------------------5*----|
	|--------1*----------------------------------3*----|
Related for The Lawnmowers - Das Laawnmuwer tab