Song name
# A B C D E F G H I J K L M N O P Q R S T U V W X Y Z

Misc Unsigned Bands - Keeper - Future Slash tab

Future Slash of Keeper, tabbed by Elari Sepp (djcrediitti@hotmail.com)

Intro and Outro

Guitar 1:

|--------------------------------------------------------------------------|
|--------------------------------------------------------------------------|
|--------------------------------------------------------------------------|
|-9-----7---10-------8--11--------9---12---------10--12b--11b---10b--9/12b-|
|---7-9--------8--10--------9--11--------10--12------12b--11b---10b--9/12b-|
|--------------------------------------------------------------------------|

Guitar 2:

|--------------------------------------------------------------------------|
|--------------------------------------------------------------------------|
|--------------------------------------------------------------------------|
|--9---------10--------11--------12-------12----------9--------------------|
|--7----------8---------9--------10-------12----------9--------------------|
|--------------------------------------------------------------------------|

Verse 1, 2 and 3:

Guitar 1 & 2 play the same:

|--------------------------------------------------------------------------|
|--------------------------------------------------------------------------|
|----------------------------------11--11--10---9--9--6--5-----------------|
|--9-9-9--7-7-6--7-7-5---9-9-10-----------------------------5---4---3------|
|--------------------------------------------------------------------------|
|--------------------------------------------------------------------------|

|--------------------------------------------------------------------------|
|--------------------------------------------------------------------------|
|--------------------------4-5---------11----------------------------------|
|--4-3-2-------7-7-6-6-5-5--------10---------------------------------------|
|--------2-3---------------------------------------------------------------|
|--------------------------------------------------------------------------|


Chorus:

Guitar 1 (Play twice):

|--------------------------------------------------------------------------|
|--------------------------------------------------------------------------|
|--------------------------------------------------------------------------|
|-6---7---5-------------------------10----10-------------------------------|
|-6---7---5-----6---8---8---7---9------11----------------------------------|
|------------7-------------------------------------------------------------|


Guitar 2: (Once)
|--------------------------------------------------------------------------|
|--------------------------------------------------------------------------|
|--12----13---14-----------------------------------------------------------|
|--11----12---13-----11----11----11---11---11---11---11--------------------|
|------------------9----9-----9-----9----9----9----9-----------------------|
|--------------------------------------------------------------------------|

Bass Solo:

Guitar 1:

|--------------------------------------------------------------------------|
|--------------------------------------------------------------------------|
|--------------------------------------------------------------------------|
|--------------------------------------------------------------------------|
|-----------------------------------------------------------------------19b|
|-8-8-8--10-10-10---12-12-12---14-14-14---16-16-16---18-18-18--20-20-20----|

Guitar 2:

|---------------------------------------------------------19b--------------|
|--------------------------------------------------------------------------|
|--------------------------------------------------------------------------|
|--4-4-3---4-4-3---4-4-3---4-4-3---4-4-3---4-4-3---4-4-3-------------------|
|--------------------------------------------------------------------------|
|--------------------------------------------------------------------------|
Tap to rate this tab
# A B C D E F G H I J K L M N O P Q R S T U V W X Y Z