Song name
# A B C D E F G H I J K L M N O P Q R S T U V W X Y Z

Misc Unsigned Bands - Lynam - Tanis tab

Help us improve GuitareTab! Take a short survey!
-------------------------------------------------------------------------------
			     Tanis - Lynam
-------------------------------------------------------------------------------
Tabbed by:parkerguitars24
Email:parkerbutler234@hotmail.com

Tuning: Drop D
   2's and 1's below. Repeat this as needed.
e|---------------------------------------------------------------------------|
B|-212121--------------------------------------------------------------------|
G|---------------------------------------------------------------------------|
D|---------------------------------------------------------------------------|
A|---------------------------------------------------------------------------|
E|---------------------------------------------------------------------------|
   Repeat this as needed.
e|---------------------------------------------------------------------------|
B|---------------------------------------------------------------------------|
G|----------11-10------------11-10-------------------------------------------|
D|-0-9-11-0-x--x----0-9-11-0-x--x----9\--------------------------------------|
A|-0-9-11-0-9--8----0-9-11-0-9--8----9\--------------------------------------|
E|-0-9-11-0---------0-9-11-0---------9\--------------------------------------|




| /  slide up
| \  slide down
| h  hammer-on
| p  pull-off
| ~  vibrato
| +  harmonic
| x  Mute note
===============================================================================
Related for Lynam - Tanis tab