Song name
# A B C D E F G H I J K L M N O P Q R S T U V W X Y Z

Misc Unsigned Bands - Shadows In The Light - Wild Dogs tab

Song: Wild Dogs!!!
Band: Shadows in the Light
Album: Name not decided yet

h=hammer on
p=pull off
s=slide

Intro
 Guitar 1
  e ------------------------------|
  b ------------------------------|
  g ------------------------------|
  d --5-4-5--3-2-3----------------| x6
  a -3------1------5-4-5-4-5-4-5--|
  E --------------3---------------|

  Guitar 2(after 2nd time)
  e-------------------|
  b-------------------|
  g-------------------|
  d--5------3---------|  x4
  a--3------1-----5---|
  E---------------3---|

 Guitar 3(after 2nd time)
  e--8------6-----3-|
  b--8------6-----3-|
  g--8------7-----3-|
  d-10------8-----5-|
  a-10------8-----5-|
  E--8------6-----3-|

Verse

 Guitar 1
  e-------------------------------------|
  b-------------------------------------|  palm mute
  g-------------------------------------|
  d--5-4-5---3-2-3----------------  x 4-|
  a-3------1---------5-4-5-4-5-4-5------|
  E----------------3--------------------|

 Guitar 2
  e-------------------------------|
  b-------------------------------|  palm mute
  g-------------------------------|
  d-5------3----------------------|  x4
  a-3------1-------5--------------|
  E----------------3--------------|

 Guitar 3
  e-8------6-------3--------------|
  b-8------6-------3--------------|
  g-8------7-------3--------------|
  d-10-----8-------5--------------|  x4
  a-10-----8-------5--------------|
  E-8------6-------3--------------|

Chorus

 Guitar 1
  e-------------------------------------------------------------------|
  b-------------------------------------------------------------------|
  g-------------------------------------------------------------------|
  d-----------------3-3-3-3-3-3-3-3-5-5-5-5-5-5-5-5-7-7-6-6-7-7-6-6---|  x2
  a-5-5-5-5-5-5-5-5-1-1-1-1-1-1-1-1-3-3-3-3-3-3-3-3-5-5-4-4-5-5-4-4---|
  E-3-3-3-3-3-3-3-3---------------------------------------------------|

 Guitar 2
  e----------------------------------------------------------------|
  b----------------------------------------------------------------|
  g-----------------3---------------5---------------7---6---7---6--|
  d-5---------------3---------------5---------------7---6---7---6--|  x2
  a-5---------------1---------------3---------------5---4---5---4--|
  E-3--------------------------------------------------------------|

 Guitar 3
  e----------------------------------------------------------------|
  b------------------------------------------------3----2---3---2--|
  g--0---------------3---------------5-----------------------------|
  d----0---------------3-0-------------5---------------------------|  x2
  a------1---------1---------------3-----6-------------------------|
  E-3--------------------------------------------------------------|
Solos
 Guitar 1
  e------------------------------|
  b------------------------------|  palm mute
  g------------------------------|
  d-5---5---3---3----------------|play when not soloing
  a-3---3---1---1--5---5---5---5-|
  E----------------3---3---3---3-|

 Guitar 3
  e-8-------6------3------------|
  b-8-------6------3------------|
  g-8-------7------3------------|
  d-10------8------5------------|
  a-10------8------5------------|play when not soloing
  E-8-------6------3------------|

 Guitar 2
  e------------------------------------------------------------|
  b------------------------------------------------------------|
  g---------------10h12---12s10---10s-12------12-10----12-10---|
  d-------12--11--------------------------10-------12-------10-|
  a-10---------------------------------------------------------|
  E------------------------------------------------------------|


  e-------------------------------------------------|
  b-------------------------------------------------|
  g---10--------------------------10-------------12-|
  d-----10---10--------11h12-11h12----11h12-11h12---|
  a-------13---13-10--------------------------------|
  E-------------------------------------------------|

  e-------------------------------------15-14-15----|
  b-----------------------------------13---------11-|
  g------------10-----------------------------------|
  d-11h12-11h12---11h12-11h12-----------------------|
  a--------------------------13s10------------------|
  E-------------------------------------------------|

  e-13-12-13--10-9-10-9-10-9-10---15-14-15---13-12-13--10-9-10-9-10-9-10-|
  b----------8------------------13---------11---------8------------------|
  g----------------------------------------------------------------------|
  d----------------------------------------------------------------------|
  a----------------------------------------------------------------------|
  E----------------------------------------------------------------------|

 Guitar 1
  e---------------------------------------------|
  b---------------------------------------------|
  g---------------------------------------------|
  d------------------------------------10h11h12-|
  a-10h13p10h13p10h13p10h13p10h13p10h13---------|
  E---------------------------------------------|

  e---------------------------------------------------------------------------|
  b---------------------------------------------------------------------------|
  g---------------------------12h15p12h15p12h15p12h15p12h15p12h15p12h15p12h15-|
  d-10h11h12-10h11h12-10h11h12------------------------------------------------|
  a---------------------------------------------------------------------------|
  e---------------------------------------------------------------------------|

  e--------------------------------------------|
  b-13h14h15-13h14h15-13h14h15-13h14h15--------|
  g--------------------------------------12h15-|
  d--------------------------------------------|
  a--------------------------------------------|
  E--------------------------------------------|

  e------------------------|
  b------------------------|
  g10h12-------------------|
  d-----10h12-----------12-|
  a----------10h13--10--10-|
  E------------------------|

 Guitar 3(by himself with bass)
Chord rhythm(4 beats): | | || |(bass plays root note and same rhythm)

Gmin, Bbmaj, Cmin, Dmin

Bridge
 Guitar 1
 e----------------|
 b----------------|
 g----------------|
 d----------------|
 a-5--------------|
 E-3--------------|

 Guitar 2
 e----------------|
 b----------------|
 g----------------|
 d-5--------------|
 a-5--------------|
 E-3--------------|

 Guitar 3
 e-3--------------|
 b-0--------------|
 g-0--------------|
 d-0--------------|
 a-1--------------|
 E-3--------------|

Outro

 Guitar 1
 e-------------------|
 b-------------------|
 g-------------------|
 d--5-4--3-2---------|
 a-3----1------5-4-5-|
 E-----------3-----3-|
Tap to rate this tab
# A B C D E F G H I J K L M N O P Q R S T U V W X Y Z