Song name
# A B C D E F G H I J K L M N O P Q R S T U V W X Y Z

Misc Unsigned Bands - Bulletproof - Rock Bottom tab

Rock Bottom
By: Bulletproof

Intro

e--------------------|-------------------------------|
b-9-9----------------|-9-9---------------------------|
g-9-9---------7--9---|-9-9---5p2p0---------------2---|
d-9-9---9p7---7--9---|-9-9---------4p2p0---------2---|
a-----0-----0-5--7---|-----0---------------3p0---0---|
E--------------------|-------------------0-----0-----|
<---------3x-----------------------------------------|

Verse

e-----------------|---------------|
b-9-9-------------|-9-9-----------|
g-9-9---------7-9-|-9-9---------2-|4x
d-9-9---9p7---7-9-|-9-9---------2-|
a-----0-----0-5-7-|-------3p0---0-|
E-----------------|-----0-----0---|

Pre-chorus

e---------|---------|---------|---------|
b---------|---------|---------|---------|
g-9-------|-7-------|-5-5-5-5-|-5/7-7---|
d-9-------|-7-------|-5-5-5-5-|-5/7-7---|
a-7-------|-5-------|-2-2-2-3-|-3/5-5---|
E---------|---------|---------|---------|

|---------|---------|---------|-------------|
|---------|---------|---------|-------------|
|-9-------|-7-------|-5-5-5-5-|-2-2-2-2-2-2-|
|-9-------|-7-------|-5-5-5-5-|-2-2-2-2-2-2-|
|-7-------|-5-------|-2-2-2/3-|-0-0-0-0-0-0-|
|---------|---------|---------|-------------|

Chorus

e----------|--------------|-----------------------|
b----------|---8--8-8-7---|-----------------------|
g-9-7-9\---|---7--7-7-7---|-----------0---------2-|3x
d-9-7-9\---|---9--9-9-7---|-------2p0-----------2-|
a-7-5-7\---|-0-0--0-0-0---|-0-3-4---------3p0---0-|
E----------|--------------|-------------0-----0---|

e----------|--------------|-----------------------|
b----------|---8--8-8-7---|---------------------3-|
g-9-7-9\---|---7--7-7-7---|-----------0---------2-|
d-9-7-9\---|---9--9-9-7---|-------2p0-----------0-|
a-7-5-7\---|-0-0--0-0-0---|-0-3-4---------3p0-----|
E----------|--------------|-------------0-----0---|

Verse

e-----------------|---------------|
b-9-9-------------|-9-9-----------|
g-9-9---------7-9-|-9-9---------2-|4x
d-9-9---9p7---7-9-|-9-9---------2-|
a-----0-----0-5-7-|-------3p0---0-|
E-----------------|-----0-----0---|

Pre-chorus

e---------|---------|---------|---------|
b---------|---------|---------|---------|
g-9-------|-7-------|-5-5-5-5-|-5/7-7---|
d-9-------|-7-------|-5-5-5-5-|-5/7-7---|
a-7-------|-5-------|-2-2-2-3-|-3/5-5---|
E---------|---------|---------|---------|

|---------|---------|---------|-------------|
|---------|---------|---------|-------------|
|-9-------|-7-------|-5-5-5-5-|-2-2-2-2-2-2-|
|-9-------|-7-------|-5-5-5-5-|-2-2-2-2-2-2-|
|-7-------|-5-------|-2-2-2/3-|-0-0-0-0-0-0-|
|---------|---------|---------|-------------|

Chorus

e----------|--------------|-----------------------|
b----------|---8--8-8-7---|-----------------------|
g-9-7-9\---|---7--7-7-7---|-----------0---------2-|3x
d-9-7-9\---|---9--9-9-7---|-------2p0-----------2-|
a-7-5-7\---|-0-0--0-0-0---|-0-3-4---------3p0---0-|
E----------|--------------|-------------0-----0---|

Bridge

e----------|--------------|------------------------|
b----------|---8--8-8-7---|------------------------|
g-9-7-9\---|---7--7-7-7---|-----------0------------|
d-9-7-9\---|---9--9-9-7---|-------2p0-----------7~-|
a-7-5-7\---|-0-0--0-0-0---|-0-3-4---------3p0------|
E----------|--------------|-------------0-----0----|

hold the vibrato for 7 measures

then do this to start solo

|-----|
|-----|
|-----|
|-----|
|-/ \-|
|-/ \-|

e--------------------------------------------------------|
b--------------------------------------------------------|
g-5h8p5-7p5----------5---5-7~--0-5p2p0-5p2p0-4p2p0-4p2p0-|
d-----------7~~~~~-5---5---------------------------------|
a--------------------------------------------------------|
E--------------------------------------------------------|

-----------------------------------------------7-------------------------|
-------------------------------------------------10-7---7----------------|
-----------------------------------------5---5--------9---7--------7---7-|
-4p2p0-4p2p0-------------------------5h7---7----------------9p7~-9---9---|
-------------3~-------3b4---5~~~-5/7-------------------------------------|
----------------0-3-0-----0----------------------------------------------|

----------------------------------------------------------------------12-----|
-----------15b17~~=pr15-12-----------12~~~-------12-15p12-------12~~~----15--|p
-7-7-7/9~~-----------------14p12--14-------14b16----------14b16--------------|
-----------------------------------------------------------------------------|
-----------------------------------------------------------------------------|
-----------------------------------------------------------------------------|

-------------------------------------------------7-------------------------|
12-----12-12---------------------------------------10-7----------/17-20b22-|
---14~-12----12---------------------5-7-----------------9p7---7~-----------|
----------------14~~~-x<~~~~~~~~~-7-----7-5---5~------------9--------------|
----------------------x<~~~~~~~~~-----------7------------------------------|
---------------------------------------------------------------------------|

--------------------------------------------------------------------|
pb22-pb22-20-20b22-17-------------17~~~~----------------------------|
----------------------19-17-19b21-----------------------------------|
-----------------------------------------x<~~~~~~~~~~~~~~~~~~~~~~~~-|
-----------------------------------------x<~~~~~~~~~~~~~~~~~~~~~~~~-|
--------------------------------------------------------------------|

Outro

e--------------------|-----------------------------|
b-9-9----------------|-9-9-------------------------|
g-9-9---------7--9---|-9-9---5p2p0---------------2-|4x
d-9-9---9p7---7--9---|-9-9---------4p2p0---------2-|
a-----0-----0-5--7---|-----0---------------3p0---0-|
E--------------------|-------------------0-----0---|

e----------|--------------|-----------------------|
b----------|---8--8-8-7---|-----------------------|
g-9-7-9\---|---7--7-7-7---|-----------0---------2-|fades out
d-9-7-9\---|---9--9-9-7---|-------2p0-----------2-|
a-7-5-7\---|-0-0--0-0-0---|-0-3-4---------3p0---0-|
E----------|--------------|-------------0-----0---|
Tap to rate this tab
# A B C D E F G H I J K L M N O P Q R S T U V W X Y Z