Song name
# A B C D E F G H I J K L M N O P Q R S T U V W X Y Z

Misc Unsigned Bands - Nursery Crimes - Steer The Wheel tab

Help us improve GuitareTab! Take a short survey!
intro:
d|-------------------------------------------------|
A|-------------------------------------------------|
F|-------------------------------------------------|
C|-------------------------------------------------|
G|-7p5---------7h8p7-----7h8---------7h8p7----7p5--|
C|-----0000000-------10------0000000-------10------|
pm     .......               .......

d|-------------------------------------------------|
A|-------------------------------------------------|
F|-------------------------------------------------|
C|-------------------------------------------------|
G|-7p5---------7h8p7-----7h8---------7h8p7----7p5--|
C|-----0000000-------10------0000000-------10------|
pm     .......               .......

verse:
d|--------------------------------------------------------------------|
A|--------------------------------------------------------------------|
F|--------------------------------------------------------------------|
C|----------0-------0-------0-----------------3-------3-------3-------|
G|-00000000-0--0000-0--0000-0--0000-333333333-3--3333-3--3333-3--3333-|
C|-00000000-0--0000-0--0000-0--0000-333333333-3--3333-3--3333-3--3333-|
pm ........    ....    ....    .... .........    ....    ....    ....\
(repeat all throughout verse..)

chorus riff:
d|------------------------------------------------------------|
A|------------------------------10----------------------------|
F|---------10p9--9--10----10p9------10----10p9--9--10--12--10-|
C|-12121212----12-12--1212----12--12--1212----12-12--12--12---|
G|------------------------------------------------------------|
C|------------------------------------------------------------|
pm . . . .     .  .   . .     .   .   . .     .  .   .   .

d|------------------------------------|
A|------------------------------------|
F|------------------------------------|
C|-----0-----0---0-----0--------------|
G|---0-----0---0-----0----5p0---------|
C|-0-----0---------0----------8p5-----|

verse again..

chorus again..

bridge and solo coming up..
Related for Nursery Crimes - Steer The Wheel tab