Song name
# A B C D E F G H I J K L M N O P Q R S T U V W X Y Z

Misc Unsigned Bands - Nursery Crimes - The Henchmen tab

comes in at (4:01):
|---------------------------------------------------------------------------|
|---------------------------------------------------------------------------|
|--12-----------12----------12-------12----------12----------12-------------|
|------16--16-------16--16-------16------16-16-------16--16-------16--------|
|---------------------------------------------------------------------------|
|---------------------------------------------------------------------------|

|-----------------------------------------|
|-----------------------------------------|
|-----------------------------------------|
|-----------------------------------------|
|3h5-5-5-5--5-5-5/7-7-7-7--7-7-7/8-8-8-8--|
|-----------------------------------------|


|-------------------------------------------------------|
|-------------------------------------------------------|
|-------------------------------------------------------|
|-------------------------------------------------------|
|8-8-8/10-10-10-10-10-10-10-10/12-12-12-12--12-12-12\10-|
|-------------------------------------------------------|


|--------------------------|
|--------------------------|
|---8-7----10--8-7----10---|
|--------8----------8------|
|--------------------------|
|--------------------------|


|-----------------------------------|
|-----------------------------------|
|--8-7---10-8-7"10-8-7---12-10-8-7--|
|------8---------------8------------|
|-----------------------------------|
|-----------------------------------|


that's all i think..
Tap to rate this tab
# A B C D E F G H I J K L M N O P Q R S T U V W X Y Z