Song name
# A B C D E F G H I J K L M N O P Q R S T U V W X Y Z

Misc Unsigned Bands - Nursery Crimes - Lets Pretend Like Sharks tab

intro:
Gtr 1
D|-------------------------------------------------------------------------|
A|-------------------------------------------------------------------------|
F|-------------------------------------------------------------------------|
C|--------------------0----------------------7-8-5-7---10-8-7----7---------|
G|-----8p7p0-10p8p0---0---8p7p0-10p8p0---5-8---------8--------10---8-10-7-8|
C|-00---------------0-0-0--------------0-----------------------------------|
   ..               .   .              . . . . . . . .

Gtr 2
D|-------------------------------------------------------------------------|
A|-------------------------------------------------------------------------|
F|-------------------------------------------------------------------------|
C|--------------------0------------------8---8---8-8-8-8--7---7---7-7-7-7--|
G|-----8p7p0-10p8p0---0---8p7p0-10p8p0---8---8---8-8-8-8--7---7---7-7-7-7--|
C|-00---------------0-0-0--------------0-8---8---8-8-8-8--7---7---7-7-7-7--|
   ..               .   .              .

verse:
Gtr 1
D|-------------------------------------------------------------------------|
A|-------------------------------------------------------------------------|
F|-------------------------------------------------------------------------|
C|--------------------0------------------8/10-8-7h8-7h8p7------------------|
G|-----8p7p0-10p8p0---0---8p7p0-10p8p0--------------------10-8-7h8---------|
C|-00---------------0-0-0--------------0-----------------------------------|
pm ..               .   .              .

Gtr 2
D|-------------------------------------------------------------------------|
A|-------------------------------------------------------------------------|
F|-------------------------------------------------------------------------|
C|--------------------0------------------8---8---8-8-8-8--10--10--10-10-10-|
G|-----8p7p0-10p8p0---0---8p7p0-10p8p0---8---8---8-8-8-8--10--10--10-10-10-|
C|-00---------------0-0-0--------------0-8---8---8-8-8-8--10--10--10-10-10-|
pm ..               .   .              .

Chorus
Both Guitars
D|-------------------------------------------------------------------------|
A|-------------------------------------------------------------------------|
F|-------------------------------------------------------------------------|
C|-8-------0-----------8-------0--------10---------------------------------|
G|-8-(16x)-0-(16x)-----8-(16x)-0-(8x)---10-(8x)----------------------------|
C|-8-------0-----------8-------0--------10---------------------------------|

Gtr 1
D|-------------------------------------------------------------------------|
A|-------------------------------------------------------------------------|
F|-------------------------------------------------------------------------|
C|-8-------0-----------8-------0--------10---------------------------------|
G|-8-(16x)-0-(16x)-----8-(16x)-0-(8x)---10-(8x)----------------------------|
C|-8-------0-----------8-------0--------10---------------------------------|

Gtr 2
D|-------------------------------------------------------------------------|
A|-------------------------------------------------------------------------|
F|-10-9-7--7/9/7/5/7---10-9-7--12-10-99/10---------------------------------|
C|-x--x-x--x/x/x/x/x---x--x-x--x--x--xx/x----------------------------------|
G|-8--7-5--5/7/5/3/5---8--7-5--10-8--77/8----------------------------------|
C|-------------------------------------------------------------------------|

intro:
Gtr 1
D|-------------------------------------------------------------------------|
A|-------------------------------------------------------------------------|
F|-------------------------------------------------------------------------|
C|--------------------0----------------------7-8-5-7---10-8-7----7---------|
G|-----8p7p0-10p8p0---0---8p7p0-10p8p0---5-8---------8--------10---8-10-7-8|
C|-00---------------0-0-0--------------0-----------------------------------|
   ..               .   .              . . . . . . . .

Gtr 2
D|-------------------------------------------------------------------------|
A|-------------------------------------------------------------------------|
F|-------------------------------------------------------------------------|
C|--------------------0------------------8---8---8-8-8-8--7---7---7-7-7-7--|
G|-----8p7p0-10p8p0---0---8p7p0-10p8p0---8---8---8-8-8-8--7---7---7-7-7-7--|
C|-00---------------0-0-0--------------0-8---8---8-8-8-8--7---7---7-7-7-7--|
   ..               .   .              .

verse:
Gtr 1
D|-------------------------------------------------------------------------|
A|-------------------------------------------------------------------------|
F|-------------------------------------------------------------------------|
C|--------------------0------------------8/10-8-7h8-7h8p7------------------|
G|-----8p7p0-10p8p0---0---8p7p0-10p8p0--------------------10-8-7h8---------|
C|-00---------------0-0-0--------------0-----------------------------------|
pm ..               .   .              .

Gtr 2
D|-------------------------------------------------------------------------|
A|-------------------------------------------------------------------------|
F|-------------------------------------------------------------------------|
C|--------------------0------------------8---8---8-8-8-8--10--10--10-10-10-|
G|-----8p7p0-10p8p0---0---8p7p0-10p8p0---8---8---8-8-8-8--10--10--10-10-10-|
C|-00---------------0-0-0--------------0-8---8---8-8-8-8--10--10--10-10-10-|
pm ..               .   .              .

Chorus
Both Guitars
D|-------------------------------------------------------------------------|
A|-------------------------------------------------------------------------|
F|-------------------------------------------------------------------------|
C|-8-------0-----------8-------0--------10---------------------------------|
G|-8-(16x)-0-(16x)-----8-(16x)-0-(8x)---10-(8x)----------------------------|
C|-8-------0-----------8-------0--------10---------------------------------|

Gtr 1
D|-------------------------------------------------------------------------|
A|-------------------------------------------------------------------------|
F|-------------------------------------------------------------------------|
C|-8-------0-----------8-------0--------10---------------------------------|
G|-8-(16x)-0-(16x)-----8-(16x)-0-(8x)---10-(8x)----------------------------|
C|-8-------0-----------8-------0--------10---------------------------------|

Gtr 2
D|-------------------------------------------------------------------------|
A|-------------------------------------------------------------------------|
F|-10-9-7--7/9/7/5/7---10-9-7--12-10-99/10---------------------------------|
C|-x--x-x--x/x/x/x/x---x--x-x--x--x--xx/x----------------------------------|
G|-8--7-5--5/7/5/3/5---8--7-5--10-8--77/8----------------------------------|
C|-------------------------------------------------------------------------|

bridge:
Gtr 1
D|---------|
A|---------|
F|---------|
C|-8~------|
G|-8~------|
C|-8~------|

Gtr 2
D|-------------------------------------------------------------------------|
A|-------------------------------------------------------------------------|
F|-------14-15-12-14----17-15-14----14-------------------------------------|
C|-12-15-------------15----------17----15-17-14-15-------------------------|
G|-------------------------------------------------------------------------|
C|-------------------------------------------------------------------------|

Gtr 1
D|---------|
A|---------|
F|---------|
C|-0~------|
G|-0~------|
C|-0~------|

Gtr 2
D|-------------------------------------------------------------------------|
A|-------------------------------------------------------------------------|
F|-------14-15-12-14----17-15-14----14-------------------------------------|
C|-12-15-------------15----------17----15-17-14-15-------------------------|
G|-------------------------------------------------------------------------|
C|-------------------------------------------------------------------------|

Gtr 1
D|---------|
A|---------|
F|---------|
C|-8~------|
G|-8~------|
C|-8~------|

Gtr 2
D|-------------------------------------------------------------------------|
A|-------------------------------------------------------------------------|
F|-------14-15-12-14----17-15-14----14-------------------------------------|
C|-12-15-------------15----------17----15-17-14-15-------------------------|
G|-------------------------------------------------------------------------|
C|-------------------------------------------------------------------------|

Gtr 1
D|---------|
A|---------|
F|---------|
C|-0~------|
G|-0~------|
C|-0~------|

Gtr 2
D|-------------------------------------------------------------------------|
A|-------------------------15----------------------------------------------|
F|-------14-15-12-14----17----17-15-14-15-14-12-14-------------------------|
C|-12-15-------------15----------------------------------------------------|
G|-------------------------------------------------------------------------|
C|-------------------------------------------------------------------------|

Gtr 1
D|---------|
A|---------|
F|---------|
C|-8~------|
G|-8~------|
C|-8~------|

Gtr 2
D|-------------------------------------------------------------------------|
A|-------------------------------------------------------------------------|
F|-------14-15-12-14----17-15-14----14-------------------------------------|
C|-12-15-------------15----------17----15-17-14-15-------------------------|
G|-------------------------------------------------------------------------|
C|-------------------------------------------------------------------------|

Gtr 1
D|---------|
A|---------|
F|---------|
C|-0~------|
G|-0~------|
C|-0~------|

Gtr 2
D|-------------------------------------------------------------------------|
A|-------------------------------------------------------------------------|
F|-------14-15-12-14----17-15-14----14-------------------------------------|
C|-12-15-------------15----------17----15-17-14-15-------------------------|
G|-------------------------------------------------------------------------|
C|-------------------------------------------------------------------------|

Gtr 1
D|---------|
A|---------|
F|---------|
C|-8~------|
G|-8~------|
C|-8~------|

Gtr 2
D|-------------------------------------------------------------------------|
A|-------------------------------------------------------------------------|
F|-------14-15-12-14----17-15-14----14-------------------------------------|
C|-12-15-------------15----------17----15-17-14-15-------------------------|
G|-------------------------------------------------------------------------|
C|-------------------------------------------------------------------------|

Gtr 1
D|-------------------------------------------------------------------------|
A|-------------------------------------------------------------------------|
F|-------------------------------------------------------------------------|
C|-0~----------------------10~---------------------------------------------|
G|-0~----------------------10~---------------------------------------------|
C|-0~----------------------10~---------------------------------------------|

Gtr 2
D|-------------------------------------------------------------------------|
A|-------------------------15----------------------------------------------|
F|-------14-15-12-14----17----17-15-14-15-14-12-14-------------------------|
C|-12-15-------------15----------------------------------------------------|
G|-------------------------------------------------------------------------|
C|-------------------------------------------------------------------------|


then chorus til fade...
Tap to rate this tab
# A B C D E F G H I J K L M N O P Q R S T U V W X Y Z