Song name
# A B C D E F G H I J K L M N O P Q R S T U V W X Y Z

Misc Unsigned Bands - Nursery Crimes - The Contortionist tab

d|---------------------------------------------------------------------------|
a|---------------------------------------------------------------------------|
f|---------------------------------------------------------------------------|
c|-------------------0-----------------8/10-878-7h8p7------------------------|
g|-..-8p7p0-10p8p0-.-0--.-8p7p0-10p8p0----------------8/10-878---------------|
c|-00--------------0-0--0----------------------------------------------------|

d|---------------------------------------------------------------------------|
a|---------------------------------------------------------------------------|
f|-------------------------------------------.-.--.---.-.-.------------------|
c|-------------------0-------------------.-.-7-8-.7-.10-8-7.--.-.-.----------|
g|-..-8p7p0-10p8p0-.-0--.-8p7p0-10p8p0---5-8----10--8------8-10-7-8----------|
c|-00--------------0-0--0----------------------------------------------------|

d|---------------------------------------------------------------------------|
a|---------------------------------------------------------------------------|
f|---------------------------------------------------------------------------|
c|-------------------0-----------------8/10-878-7h8p7------------------------|
g|-..-8p7p0-10p8p0-.-0--.-8p7p0-10p8p0----------------8/10-878---------------|
c|-00--------------0-0--0----------------------------------------------------|

d|---------------------------------------------------------------------------|
a|---------------------------------------------------------------------------|
f|---------------------------------------------------------------------------|
c|----7-8--7-----------------------7-8---7--10-8-7-8-7-5-7-------------------|
g|-5-8---10-8-----...-...-...--5-8----10--8----------------------------------|
c|------------0-0-000-000-000------------------------------------------------|

d|---------------------------------------------------------------------------|
a|---------------------------------------------------------------------------|
f|-------14-15----14----17-15-14----14---------------------------------------|
c|-12-15-------17----15----------17---15-17-14-15----------------------------|
g|---------------------------------------------------------------------------|
c|---------------------------------------------------------------------------|

Tap to rate this tab
 
# A B C D E F G H I J K L M N O P Q R S T U V W X Y Z