Song name
# A B C D E F G H I J K L M N O P Q R S T U V W X Y Z

Misc Unsigned Bands - Nursery Crimes - Pancakes And The Theory Of Isostacy tab

Tuning Drop D down one step

opening riff played 4 times:
|-------------------------------------------------------------------|
|--------------------------------------------------10--------10-----|
|-14-14-14p12p10-12-12-12p10p9 10 9----9--------------10--------10--|
|-----------------------------------12---12-10-8-8-------8-8------8-|
|-------------------------------------------------------------------|
|-------------------------------------------------------------------|
                                         repeat this part 2 times:
|-------------------------------------------------------------------|
|-------------------------------------------------------------------|
|-------------------------------------------------------------------|
|-888888888888--101010101010--777777-------9-9/10---9-9/10----------|
|-888888888888--101010101010--777777-------7-7/8----7-7/8-----------|
|-888888888888--101010101010--777777----00--------00-------000000000|
                                        ..        ..       .........

|-------------------------------------------------------------------|
|--------------------------------------------------10--------10-----|
|-14-14-14p12p10-12-12-12p10p9 10 9----9--------------10--------10--|
|-----------------------------------12---12-10-8-8-------8-8------8-|
|-------------------------------------------------------------------|
|-------------------------------------------------------------------|
                                         repeat this part 2 times:
|-------------------------------------------------------------------|
|-------------------------------------------------------------------|
|-------------------------------------------------------------------|
|-888888888888--101010101010--777777-------9-9/10---9-9/10----------|
|-888888888888--101010101010--777777-------7-7/8----7-7/8-----------|
|-888888888888--101010101010--777777----00--------00-------000000000|
                                        ..        ..       .........
verse:
|---------------------------------------------------------------------------|
|------------------------------------------------10-10h12p10--10--10h12p10-8|
|14-14-14p12p10-12-12-12p10p9-10-9----9---------------------10--------------|
|-----------------------------------12--12-10-8-8---------------------------|
|---------------------------------------------------------------------------|
|---------------------------------------------------------------------------|

|------------------------------------------------------------------------|
|------------------------------------------------------------------------|
|------------------------------------------------------------------------|
|-8-7h8-7-8-7h8-8-8h10-8-7-8-7----5-8-7h8-7-8-7h8-8-8-7h8-8h10-8-7-8-7---|
|-------7-------8--------------10-5-------7-------8-------------------10-|
|-------7-------8-----------------5-------7-------8----------------------|

|---------------------------------------------------------------------------|
|------------------------------------------------10-10h12p10--10--10h12p10-8|
|14-14-14p12p10-12-12-12p10p9-10-9----9---------------------10--------------|
|-----------------------------------12--12-10-8-8---------------------------|
|---------------------------------------------------------------------------|
|---------------------------------------------------------------------------|

|------------------------------------------------------------------------|
|------------------------------------------------------------------------|
|------------------------------------------------------------------------|
|-8-7h8-7-8-7h8-8-8h10-8-7-8-7----5-8-7h8-7-8-7h8-8-8-7h8-8h10-8-7-8-7---|
|-------7-------8--------------10-5-------7-------8-------------------10-|
|-------7-------8-----------------5-------7-------8----------------------|

chorus:
|-------------------------------------------------------------------|
|-------------------------------------------------------------------|
|------------9----------10----------12------------------------------|
|-0----------X-----------X-----------X----7p5---7-------------------|
|-0-00-00000-7-00-00000--8-00-00000-10-00-----8---8-7---------------|
|-0-00-00000-9-00-00000-10-00-00000-12-00---------------------------|
    .. .....   .. .....    .. .....    ..

|-------------------------------------------------------------------|
|-------------------------------------------------------------------|
|-------------------------------------------------------------------|
|---7-5/7---7-5/7-8-0-8-7h8-10-0-10--7-7-7--------------------------|
|-0-5-3/5-0-5-3/5-8-0-8-7h8-10-0-10--7-7-7--------------------------|
|-0-------0-------8-0-8-7h8-10-0-10--7-7-7--------------------------|

verse again..

chorus again..

bridge coming up..
Tap to rate this tab
# A B C D E F G H I J K L M N O P Q R S T U V W X Y Z