Guitaretab - guitar tabs
Song name
# A B C D E F G H I J K L M N O P Q R S T U V W X Y Z

Misc Unsigned Bands - Beloved And Hatred - All In The Eyes tab

|---------------------------------------------------------------------|
|---------------------------------------------------------------------|
|---------------------------------2-----------------------------------|  
|---------------------------------1--------------------------------5--|
|------------2---2~~--------2-1---0-----------2---2~~--------4-3---3--|
|--0-2br-0-1-0-0-0~~----1-2-----0---0-2br-0-1-0-0-0~~----3-4-----0----|
               .                .               .                .

|------|--------14------|------|--------14-----17-----------|
|------|--12-13----13---|------|--12-13----13-----13-12-----|
|------|o---------------|------|---------------------------o| 
|------|o---------------|------|---------------------------o|
|------|----------------|------|----------------------------|
|--0---|----------------|--0---|------------------------0---|


that's all..
[ Tab from: http://www.guitaretab.com/m/misc-unsigned-bands/108770.html ]
Related for Beloved And Hatred - All In The Eyes tab
Advertisement will be closed in 10 seconds