Song name
# A B C D E F G H I J K L M N O P Q R S T U V W X Y Z

Misc Unsigned Bands - Beloved And Hatred - Lacus And Eremus tab

e---------------------------------------------------------------------------|
B---------------------------------------------------------------------------|
G--777----------------------------------------------------------------------|
D-----9997779997755---------------------------------------------------------|
A---------------------------------------------------------------------------|
E---------------------------------------------------------------------------|


e----------------------------------------------------------------------------|
B----------------------------------------------------------------------------|
G---------------4-----------------4---------------------4--------------------|
D----9-9---4h5h7-------9-9---4h5h7-----------9-9---4h5h7-----------555555557-|
A----9-9---------------9-9-------------------9-9----------999999999----------|
E----7-7---------------7-7-------------------7-7-----------------------------|

e---------------------------------------------------------------------------|
B--------------------7------------------------------------------------------|
G---4h6p4h6h7p67s97h9-------------------------------------------------------|
D---------------------------------------------------------------------------|
A---------------------------------------------------------------------------|
E---------------------------------------------------------------------------|
Tap to rate this tab
# A B C D E F G H I J K L M N O P Q R S T U V W X Y Z