Song name
# A B C D E F G H I J K L M N O P Q R S T U V W X Y Z

Misc Unsigned Bands - Beloved And Hatred - Which Way tab

d---------------------------------------------------------|
a---------------------------------------------------------|
f---------------------------------------------------------|
c---5-7-5-8-7-5-7-5-3h5p3-0--------------8/7----------7/5-|
g---------------------------3-----------10/8----------8/7-|
c-5-----------------------------888-888-------777-777-----|

d---------------------------------------------------------|
a---------------------------------------------------------|
f---------------------------------------------------------|
c---5-7-5-8-7-5-7-5-3h5p3-0--------------8/7----------7/5-|
g---------------------------3-----------10/8----------8/7-|
c-5-----------------------------888-888-------777-777-----|
Tap to rate this tab
 
# A B C D E F G H I J K L M N O P Q R S T U V W X Y Z