Song name
# A B C D E F G H I J K L M N O P Q R S T U V W X Y Z

Misc Unsigned Bands - Mechanical Christ - We Raise Dead Not Dreams tab

D--------------------------------------|
A--------------------------------------|
F--------------------------------------|
C-0------------------------------------| x2
G-0-554455-0-554455-5-554455-0-554455--|
C-0------------------------------------|

D----------------------------------\-|
A----------------------------------\-|
F----------------------------------\-|
C--0--00000--0-0--0-0-00-00-00000--\-| x4
G--0--00000--0-0--0-0-00-00-00000--\-|
C--0--00000--0-0--0-0-00-00-00000--\-|

D------------------------\-|
A------------------------\-|
F------------------------\-|
C--0--00000--0-0--0-0-0~~\-|
G--0--00000--0-0--0-0-0~~\-|
C--0--00000--0-0--0-0-0~~\-|

D----------------------------------\-|
A----------------------------------\-|
F----------------------------------\-|
C--0--00000--0-0--0-0-00-00-00000--\-|
G--0--00000--0-0--0-0-00-00-00000--\-|
C--0--00000--0-0--0-0-00-00-00000--\-|

D------------------------\-|
A------------------------\-|
F------------------------\-|
C--0--00000--0-0--0-0-0~~\-|
G--0--00000--0-0--0-0-0~~\-|
C--0--00000--0-0--0-0-0~~\-|

D----------------------------------\-|
A----------------------------------\-|
F----------------------------------\-|
C--0--00000--0-0--0-0-00-00-00000--\-| x4
G--0--00000--0-0--0-0-00-00-00000--\-|
C--0--00000--0-0--0-0-00-00-00000--\-|

D------------------|
A------------------|
F------------------|
C-0-3-2-3-77h3-2-3-|
G-0-3-2-3-77h3-2-3-|
C-0-3-2-3-77h3-2-3-|
  . . . . .... . .

D----------------------------|
A----------------------------|
F----------------------------|
C----------------------------|
G-0-554455-0-554455-0-554455-|
C----------------------------|

D------|
A------|
F------|
C-5323-|
G-5323-|
C-5323-|
  ....

D----------------------------|
A----------------------------|
F----------------------------|
C-0--------------------------|
G-0-554455-0-554455-0-554455-|
C-0--------------------------|

D------------------|
A------------------|
F------------------|
C-0-3-2-3-77h3-2-3-|
G-0-3-2-3-77h3-2-3-|
C-0-3-2-3-77h3-2-3-|
  . . . . .... . .

D----------------------------|
A----------------------------|
F----------------------------|
C----------------------------|
G-0-554455-0-554455-0-554455-|
C----------------------------|

D------|
A------|
F------|
C-5323-|
G-5323-|
C-5323-|
  ....

D----------------------------|
A----------------------------|
F----------------------------|
C-0--------------------------|
G-0-554455-0-554455-0-554455-|
C-0--------------------------|

D---------------------------------|
A---------------------------------|
F---------------------------------|
C-0-3-2-3-7-3-2-3-5-3-2-3-7-3-2-3-|
G-0-3-2-3-7-3-2-3-5-3-2-3-7-3-2-3-|
C-0-3-2-3-7-3-2-3-5-3-2-3-7-3-2-3-|
  . . . .   . . . . . . . . . . .

D-----------------|
A-----------------|
F-----------------|
C-5-3-2-3-7-3-2-3-| x6
G-5-3-2-3-7-3-2-3-|
C-5-3-2-3-7-3-2-3-|
  . . . .   . . .

D----------------------------------------|
A----------------------------------------|
F----------------------------------------|
C-000-000---000--000--000-000---000--000-|
G-000-000---000--000--000-000---000--000-|
C-000-000---000--000--000-000---000--000-|
  ... ...   ...  ...  ... ...   ... ...

D--------------------------------------------|
A--------------------------------------------|
F--------------------------------------------|
C-0-0-0----------------0-0-0-0---------------| X2
G-0-0-0-540-/8-757-54--0-0-0-0-540-/8-757-54-|
C-0-0-0----------------0-0-0-0---------------|
  . . .                . . . .

D---------------------|
A---------------------|
F---------------------|
C-0-0-0---------------|
G-0-0-0-540-/8-757-54-|
C-0-0-0---------------|
  . . .

D--------------------------------------------|
A--------------------------------------------|
F--------------------------------------------|
C-0-0-0----------------0-0-0-0---------------| X4
G-0-0-0-540-/8-757-54--0-0-0-0-540-/8-757-54-|
C-0-0-0----------------0-0-0-0---------------|
  . . .                . . . .

D---------------------|
A---------------------|
F---------------------|
C-0-0-0---------------|
G-0-0-0-540-/8-757-54-|
C-0-0-0---------------|
  . . .

D--------------------------------------------|
A--------------------------------------------|
F--------------------------------------------|
C-0-0-0----------------0-0-0-0---------------| X4
G-0-0-0-540-/8-757-54--0-0-0-0-540-/8-757-54-|
C-0-0-0----------------0-0-0-0---------------|
  . . .                . . . .

end..
Tap to rate this tab
# A B C D E F G H I J K L M N O P Q R S T U V W X Y Z