Song name
# A B C D E F G H I J K L M N O P Q R S T U V W X Y Z

Misc Unsigned Bands - Mechanical Christ - This Belief And Disbelief tab

Help us improve GuitareTab! Take a short survey!
Guitar I
D||-------------------------------------------------------------------------------------|
A||-------------------------------------------------------------------------------------|
F||-------------------------------------------------------------------------------------|
C||-------------------------------------------------------------------------------------|
G||-8v------8v------12h13---13h15---12h13p12p10-----1010101212121313131212121010108887*-|
C||-----000-----000-------0-------0--------------888------------------------------------|
PM|-----xxx-----xxx-------x-------x-----------------------------------------------------|
 ||
 ||Guitar II
D||---------------------------------------------------------------------|
A||---------------------------------------------------------------------|
F||---------------------------------------------------------------------|
C||---------------------------------------------------------------------|
G||-5v------5v------8h10---10h12---8h10p8p7-----7778881010108887775554*-|
C||-----000-----000------0-------0-----------888------------------------|
PM|-----xxx-----xxx------x-------x--------------------------------------|


Guitar I
D||-------------------------------------------------------------------------------------|
A||-------------------------------------------------------------------------------------|
F||-------------------------------------------------------------------------------------|
C||-------------------------------------------------------------------------------------|
G||-8v------8v------12h13---13h15---12h13p12p10-----1010101212121313131212121010108887*-|
C||-----000-----000-------0-------0--------------888------------------------------------|
PM|-----xxx-----xxx-------x-------x-----------------------------------------------------|
 ||
 ||Guitar II
D||---------------------------------------------------------------------|
A||---------------------------------------------------------------------|
F||---------------------------------------------------------------------|
C||---------------------------------------------------------------------|
G||-5v------5v------8h10---10h12---8h10p8p7-----7778881010108887775554*-|
C||-----000-----000------0-------0-----------888------------------------|
PM|-----xxx-----xxx------x-------x--------------------------------------|

Guitar I
D||-----------------------------------------------------------------------|
A||-----------------------------------------------------------------------|
F||-----------------------------------------------------------------------|
C||-----------------------------------------------------------------------|
G||-8-----8---8---12---10---13---12p10------8---8---8h10------7---7---7h8-|
C||---0-0---0---0----0----0----0--------8-8---8---8-------7-7---7---7-----|
PM|---x-x---x---x----x----x----x--------x-x---x---x-------x-x---x---x-----|
 ||
 ||Guitar II
D||------------------------------------------------------------------|
A||------------------------------------------------------------------|
F||------------------------------------------------------------------|
C||------------------------------------------------------------------|
G||-5-----5---5---8---7---10---8p7------5---5---5h7------4---4---4h5-|
C||---0-0---0---0---0---0----0------8-8---8---8------7-7---7---7-----|
PM|---x-x---x---x---x---x----x------x-x---x---x------x-x---x---x-----|

   Guitar I
D||------------------------------------------------------------------------------|
A||------------------------------------------------------------------------------|
F||------------------------------------------------------------------------------|
C||------------------------------------------------------------------------------|
G||-8-----8---8---13h15-13h15-10h13-10h13----1010101212121313131212121010108887*-|
C||---0-0---0---0-------------------------888------------------------------------|
PM|---x-x---x---x----------------------------------------------------------------|
 ||
 ||Guitar II
D||---------------------------------------------------------------|
A||---------------------------------------------------------------|
F||---------------------------------------------------------------|
C||---------------------------------------------------------------|
G||-5-----5---5---8h12-8h12-7h10-7h10-----7778881010108887775554*-|
C||---0-0---0---0----------------------888------------------------|
PM|---x-x---x---x-------------------------------------------------|
         End Verse I

Related for Mechanical Christ - This Belief And Disbelief tab