Song name
# A B C D E F G H I J K L M N O P Q R S T U V W X Y Z

Misc Unsigned Bands - Nursery Crimes - Your Eyes Are Bleeding tab

Guitar I
D||----------------------------------------------------|
A||----------------------------------------------------|
F||----------------------------------------------------|
C||----------------------------------------------------|
G||---------------------55445577----77--------77884*---|
C||-000-000-0---88557788--------8888--88775588---------|
PM|-xxx-xxx--------------------------------------------|
 ||
 ||Guitar II
D||----------------------------------------------------|
A||----------------------------------------------------|
F||----------------------------------------------------|
C||----------------------------------------------------|
G||---------------------55445577----77--------77884*---|
C||-000-000-0---88557788--------8888--88775588---------|
PM|-xxx-xxx--------------------------------------------|

   Guitar I
D||--------------------------------------------|
A||--------------------------------------------|
F||--------------------------------------------|
C||--------------------------------------------|
G||-------------55445577----77--------77884444-|
C||-0---88557788--------8888--88775588---------|
 ||
 ||Guitar II
D||--------------------------------------------|
A||--------------------------------------------|
F||--------------------------------------------|
C||--------------------------------------------|
G||-------------55445577----77--------77884*---|
C||-0---88557788--------8888--88775588---------|

   Guitar I
D||-------------------------------------------------|
A||-------------------------------------------------|
F||-------------------------------------------------|
C||-------------------------------------------------|
G||-0--000-000--000-000-000-000--000-000-0-8-7-10-8-|
C||-0--000-000--000-000-000-000--000-000-0-7-5--8-7-|
PM|-x--xxx-xxx--xxx-xxx-xxx-xxx--xxx-xxx-x----------|
 ||
 ||Guitar II
D||--------------------------------------------|
A||--------------------------------------------|
F||--------------------------------------------|
C||--------------------------------------------|
G||-------------55445577----77--------77884*---|
C||-0---88557788--------8888--88775588---------|

   Guitars I, II
D||-------------------------------------------------|
A||-------------------------------------------------|
F||-------------------------------------------------|
C||-------------------------------------------------|
G||-0--000-000--000-000-000-000--000-000-0-8-7-10-8-|
C||-0--000-000--000-000-000-000--000-000-0-7-5--8-7-|
PM|-x--xxx-xxx--xxx-xxx-xxx-xxx--xxx-xxx-x----------|

Tap to rate this tab
# A B C D E F G H I J K L M N O P Q R S T U V W X Y Z