Song name
# A B C D E F G H I J K L M N O P Q R S T U V W X Y Z

Misc Unsigned Bands - Mechanical Christ - Catacombs tab

Help us improve GuitareTab! Take a short survey!
gt.1
|-13h17p13--------12h15p12--------10h13p10--------8h12p8-------|
|----------15--------------13--------------11------------10----|
|-------------14--------------12--------------10------------9--|
|--------------------------------------------------------------|
|--------------------------------------------------------------|
|--------------------------------------------------------------|
|
|gt.2
|--10h13p10--------8h12p8--------7h10p7------5h8p5-----|
|-----------11------------10------------8----------6---|
|--------------10------------9------------7----------5-|
|------------------------------------------------------|
|------------------------------------------------------|
|------------------------------------------------------|
|
|gt.3
|-----------------------------------------------------|
|-----------------------------------------------------|
|-----------------------------------------------------|
|-----------------------------------------------------|
|-----------------------------------------------------|
|-8--8-8-8-8-8-8--8-8-8-8-8-5--5-5-5-5-5-5--5-5-5-5-5-|
PM.  . . . . . .  . . . . . .  . . . . . .  . . . . .

 gt.1
|------------------------------------------|
|-----------10*------------------10*-------|
|-7--10--9------10--9--7--10--9------10--9-|
|------------------------------------------|
|------------------------------------------|
|------------------------------------------|
|
|gt.2
|------------------------------------------|
|----10--8--10*-10--8-----10--8--10*-10--8-|
|-7--------------------7-------------------|
|------------------------------------------|
|------------------------------------------|
|------------------------------------------|
Related for Mechanical Christ - Catacombs tab