Guitaretab - guitar tabs
Song name
# A B C D E F G H I J K L M N O P Q R S T U V W X Y Z

Misc Unsigned Bands - Beloved And Hatred - Cyclone tab

D|-----------------------------------------------------------------|
A|-----------------------------------------------------------------|
F|-----------------------------------------------------------------|
C|0~---------------------000---------------------0000000-----------|
G|0~-8h12h8h12-7h10h7h10-000-8h12h8h12-7h10h7h10-0000000-8h12h8h12-|
C|0~---------------------000---------------------0000000-----------|
PM.                      ...                     .......
D|---------------------------------------------------------|
A|---------------------------------------------------------|
F|--------------------------------------------9h12h9h12----|
C|-----------000--------------------8h11h8h11------------0-|
G|7h10h7h10-000-8h12h8h12-7h10h7h10----------------------0-|
C|-----------000-----------------------------------------0-|
PM           ...                                         .
[ Tab from: http://www.guitaretab.com/m/misc-unsigned-bands/108779.html ]
D|-------------------------------------------------------------------------|
A|-------------------------------------------------------------------------|
F|-----7777-9999-10101010-12121212-14141414--15-14-12-10--17h20p17--151515-|
C|000----------------------------------------------------------------------|
G|000----------------------------------------------------------------------|
C|000----------------------------------------------------------------------|
PM...
D|--------------------------------------------------------------|
A|------------------------------------------------------*10-----|
F|15h18p15--141414--14h17p14--121212--12h15p12--9--9109-----910-|
C|--------------------------------------------------------------|
G|--------------------------------------------------------------|
C|--------------------------------------------------------------|

D|---------------------------------------------------------------------|
A|-----*10-------------------------------------------------------------|
F|9109-----910--17h20p17-15h18p15-14h17p14-12h15p12-10h13p10-9h12p9--7-|
C|---------------------------------------------------------------------|
G|---------------------------------------------------------------------|
C|---------------------------------------------------------------------|

D|------------------------------------------------------------|
A|---------------15h18p15----------------------15h18p15-------|
F|------14-15-14----------15-14-------14-15-14----------15-14-|
C|---15----------------------------15-------------------------|
G|17----------------------------17----------------------------|
C|------------------------------------------------------------|

D|------------------------------------------------------------|
A|------------------------------------------------------------|
F|------14-15-14-14h15p14-------------14-15-14-14h15p14-------|
C|---15-------------------15-14----15-------------------15-14-|
G|17----------------------------17----------------------------|
C|------------------------------------------------------------|

Related for Beloved And Hatred - Cyclone tab
Advertisement will be closed in 10 seconds