Song name
# A B C D E F G H I J K L M N O P Q R S T U V W X Y Z

Misc Unsigned Bands - Mechanical Christ - Nightmares And Dreams tab

D[-----------0------------------------0-------------0------]
A[---------8---8----------10--------12--12--------13-13----]
F[-------0-------0-------0---------0------0------0------0--]
C[-----5-----------5---7---------10--------10--10--------10]
G[--7----------------9---------12------------12------------]
C[---------------------------------------------------------]

D[-----------0------------------------0-------------0------]
A[---------8---8----------10--------12--12--------13-13----]
F[-------0-------0-------0---------0------0------0------0--]
C[-----5-----------5---7---------10--------10--10--------10]
G[--7----------------9---------12------------12------------]
C[---------------------------------------------------------]
Tap to rate this tab
# A B C D E F G H I J K L M N O P Q R S T U V W X Y Z